» » »

Feeder - Just The Way I'm Feeling Tabs

Artists:  A B C D E F G H I J K L M N O P Q R S T U V W X Y Z # 

Just The Way I'm Feeling Tabs

(ver. 3) Click to play this song!
Feeder
 Rating:
4/5 (4 votes)

 Just The Way I'm Feeling lessons Tabs too difficult? Try these video lessons and learn fast
 
                Vera is my old toy cat which now smells a bit funny
                     
     Bm7                              Dsus2         Dsus2/G
e|-----------------------------------------------------------------------------|
b|----------3--3-3-------3--3-3-------3--3-3------3--3-3-----------------------|
g|----------2--2-2-------2--2-2-------2--2-2------2--2-2-----------------------|
D|-------------0-0----------2-2-------0--0-0---------0-0-----------------------|
A|---2--2------------2-------------0-------------------------------------------|
E|---------------------------------------------3-------------------------------|

Bm7        Asus4
Love in, Love out
?        Bm7     Asus4   Dsus2/G
Find a feeling


Guitar 2 - After he says "Feeling"
|------5----5--5------5----5--5--|
|----3--------------3------------|
|--2------2-------2------0-------|
|--------------------------------|
|--------------------------------|
|--------------------------------|

(violin) The violin starts the first time he says 'scream'

|--------------------|
|--------------------|
|--------------------|
|--9--------7---5----|
|--------------------|
|--------------------|

Bm7         Asus4
Screaming, scream out
?          Bm7     Asus4   Dsus2/G
Time for healing

Bm7        Asus4     Dsus2/G     Bm7     Asus4   Dsus2/G
You feel the moments gone too soon
Bm7        Asus4     Dsus2/G     Bm7     Asus4   Dsus2/G
Your watching clouds come over you



 (Variation of this riff played)
e|--------9-----10-----9-----9----10-------------------------------------------|
b|-----10----10-----10----10---10----------------------------------------------|
g|-----------------------------------------------------------------------------|


D/F#         Dsus2/G
Torn in two
Bm7               Dsus2/G          D/F# 
You close your eyes for someplace new
           Dsus2/G
Torn in two


CHORUS

Asus4     Bm7              Dsus2/G
And i feel its going down
      D/F#             Asus4
Ten feet below the ground
      Bm7               Dsus2/G
Im waiting for your healing hands
     D/F#                    Asus4
one touch could bring me round
      Bm7              Dsus2/G
And i feel its going down
      D/F#              Asus4  
Ten feet below the ground
      Bm7          Dsus2/G        D/F# 
it's just the way im feeling




Link To Verse 2


GTR1 - Back to main Riff
(violin) listen to the song for timing

|--5------9---10---3------2------5---|
|------------------------------------|
|------------------------------------|
|------------------------------------|
|------------------------------------|
|------------------------------------|



VERSE

(Back to Main Riff)

Bm7        Asus4
Glowing, Burn out
Dsus2/G        Bm     Asus4   Dsus2/G
Lost the feeling

Bm7       Asus4
Bruising, Bruise out
?        Bm7     Asus4   Dsus2/G
Missed the bleeding

D/F#           Dsus2/G 
Torn in two
Bm7           Dsus2/G
Each time we bruise


CHORUS


BRIDGE
Bm7  Asus4         Dsus2/G
Two different views   
             Asus4 Bm7  Dsus2/G
As words confuse   and break
Bm7     Asus4    Dsus2/G
I cant     get  out
D/F#          Em D/F#   Dsus2/G
theres no way out of here
Asus4      Bm7    Dsus2/G
I cant get clear

(violin)

|---5--------9---10---15-------15---14---12-----------10------------|
|-------------------------------------------------------------------|
|-------------------------------------------------------------------|
|-------------------------------------------------------------------|
|-------------------------------------------------------------------|
|-------------------------------------------------------------------|

|---5--------9---10---15-------15---14---12-----14----10------------|
|-------------------------------------------------------------------|
|-------------------------------------------------------------------|
|-------------------------------------------------------------------|
|-------------------------------------------------------------------|
|-------------------------------------------------------------------|

|---9---10---12-------14----10----|
|---------------------------------|
|---------------------------------|
|---------------------------------|
|---------------------------------|
|---------------------------------|



(back to intro)
Names: Dave opens cans of fish
       Paul has long greasy hair
       David walks,talks and looks like a girl
       Daniel has bad eyes
            
Submit corrections


        Just The Way I'm Feeling lessons Hard to play? Try these video lessons and learn fast Just The Way I'm Feeling lessons
        
↑ Back to top | Tablatures and chords for acoustic guitar and electric guitar, ukulele, drums are parodies/interpretations of the original songs. You may use it for private study, scholarship, research or language learning purposes only