» » »

Feeder - Emily Tabs

Artists:  A B C D E F G H I J K L M N O P Q R S T U V W X Y Z # 

Emily Tabs

(ver. 1) Click to play this song!
Feeder
 Rating:
4/5 (4 votes)

 Emily lessons Tabs too difficult? Try these video lessons and learn fast
 
                Feeder-Emily

 play 8 times

First there's an intro on bass,then it goes into the main riff.
There's basiclly one main riff in this song,which is:

e-9-9-9/7-7-7-7-4-4-4/2-2-0-0-0
b------------------------------
g------------------------------
d------------------------------
a------------------------------
E------------------------------

Which is all played on clean,but on the chorus(You've got a 
waiting disease..)a distorted bit comes in, which is:

e------------------------
b------------------------
g------------------------
d-4-4-4-2-2-2-6-6-6-2-2-2
a-4-4-4-2-2-2-6-6-6-2-2-2 x3
E-2-2-2-0-0-0-4-4-4-0-0-0

     then

e------
b------
g------
d-6--8-
a-6>-8>
E-4--6-

Listen to the song to get the rhythm

                             FIN
            
Submit corrections


        Emily lessons Hard to play? Try these video lessons and learn fast Emily lessons
        
↑ Back to top | Tablatures and chords for acoustic guitar and electric guitar, ukulele, drums are parodies/interpretations of the original songs. You may use it for private study, scholarship, research or language learning purposes only