» » »

Feeder - Can't Stand Losing You Tabs

Artists:  A B C D E F G H I J K L M N O P Q R S T U V W X Y Z # 

Can't Stand Losing You Tabs

(ver. 2) Click to play this song!
Feeder
 Rating:
4/5 (4 votes)

 Can't Stand Losing You lessons Tabs too difficult? Try these video lessons and learn fast
 
                Version: 2.0

Chords:

   F5   F#5    G5   G#5    A5    A#5    B5    B#5    C5
e|--------------------------------------------------------|
B|--------------------------------------------------------|
G|---------------------------2-----3-----4------5------6--|
D|-3-----4-----5-----6-----7-2---8-3---9-4---10-5---11-6--|
A|-3-----4-----5-----6-----7-0---8-1---9-2---10-3---11-4--|
E|-1-----2-----3-----4-----5-----6-----7------8------9----|

As you can see, you can use different powerchords for this song (well, any song), just choose the chords you find easiest

Hints:

\ / =slide
 :  =let ring

All the other versions of this song that I have seen use bar chords, which as of yet I can't do, so I tabbed this one using powerchords.
P.S. I haven't done the verses, becuase they're mainly bass.


This is version two of this tab. Due to my guitar tuning being cr*p, the first 
tab was one note too low everywhere.  This tab should solve this.


(Verse 1)

Bridge 1:

  A#5         F#5     A#5   F#5
I guess you'd call it cowardness

        C5  G#5            C5      A5
But i'm not prepared to go on like this


Chorus 1:

e|---------------------------------------------------------|
B|---------------------------------------------------------|
G|---------------------------------------------------------|
D|8888888888888888\5555555555555555/7777777777777777-------|
A|8888888888888888\5555555555555555/7777777777777777-------|
E|6666666666666666\3333333333333333/5555555555555555-------| x1


(Verse 2)

Bridge 2:

        A#5     F#5     A#5  F#5
You can call it lack of confidence

       C5       G#5            C5      A5
But to carry on living doesn't make no sense


Chorus 2:

e|---------------------------------------------------------|
B|---------------------------------------------------------|
G|---------------------------------------------------------|
D|8888888888888888\5555555555555555/7777777777777777-------|
A|8888888888888888\5555555555555555/7777777777777777-------|
E|6666666666666666\3333333333333333/5555555555555555-------| x2


(Solo, done on bass, guitar plays harmonics)

(Verse 3, also done on bass)
Just before Chorus 3:

e|-----------|
B|-----------|
G|-----------|
D|77777777---|
A|77777777---|
E|55555555---| x1


Chorus 3:

e|---------------------------------------------------------|
B|---------------------------------------------------------|
G|---------------------------------------------------------|
D|8888888888888888\5555555555555555/7777777777777777-------|
A|8888888888888888\5555555555555555/7777777777777777-------|
E|6666666666666666\3333333333333333/5555555555555555-------| x2

e|-------------------------------------------------------------------------|
B|-------------------------------------------------------------------------|
G|-------------------------------------------------------------------------|
D|10101010101010101010101010101010\7777777777777777/8888888888888888-------|
A|10101010101010101010101010101010\7777777777777777/8888888888888888-------|
E|-8-8-8-8-8-8-8-8-8-8-8-8-8-8-8-8\5555555555555555/6666666666666666-------| x2

e|-----------------------------------------------------------------|
B|-----------------------------------------------------------------|
G|-----------------------------------------------------------------|
D|1010101010101010\77777777---12:----------------------------------|
A|1010101010101010\77777777---12:----------------------------------|
E|-8-8-8-8-8-8-8-8\55555555---10:----------------------------------| x1
            
Submit corrections


        Can't Stand Losing You lessons Hard to play? Try these video lessons and learn fast Can't Stand Losing You lessons
        
↑ Back to top | Tablatures and chords for acoustic guitar and electric guitar, ukulele, drums are parodies/interpretations of the original songs. You may use it for private study, scholarship, research or language learning purposes only