Home » F » Fee Band »

Fee Band - Rise And Sing Tabs

Artists:  A B C D E F G H I J K L M N O P Q R S T U V W X Y Z # 

Rise And Sing Tabs

(ver. 2) Click to play this song!
Fee Band
 Rating:
3.3/5 (30 votes)
                Lead guitar
Intro/Verses
e|---------------------------------------------------------------------------|
B|---------------------------------------------------------2-----------------|
G|----4---4-2--4-----4---4-2--4-----4---4-2--4-----4---2-4---4---------------|
D|---------------2-2---2--------1-1---1--------2-2---2-----------------------|
A|2-2---2--------------------------------------------------------------------|
E|---------------------------------------------------------------------------|

Intro/Interludes
e|14141414-11111111-1212-11-12-11--------------------------------------------|
B|--------------------------------12-----------------------------------------|
G|---------------------------------------------------------------------------|
D|---------------------------------------------------------------------------|
A|---------------------------------------------------------------------------|
E|---------------------------------------------------------------------------|

Rhythm guitar
Intro/Choruses/Interludes
e|---------------------------------------------------------------------------|
B|---------------------------------------------------------------------------|
G|44444444-88888888----------------------------------------------------------|
D|44444444-88888888-66666666-4444-2222---------------------------------------|
A|22222222-66666666-66666666-4444-2222---------------------------------------|
E|------------------44444444-2222-0000---------------------------------------|

Verse Interludes
e|---------------------------------------------------------------------------|
B|---------------------------------------------------------------------------|
G|4------4-------4-------4---------------------------------------------------|
D|4------4-------4-------4---------------------------------------------------|
A|2------2-------2-------2---------------------------------------------------|
E|---------------------------------------------------------------------------|

Bridge
e|---------------------------------------------------------------------------|
B|---------------------------------------------------------------------------|
G|----4----------------------------------------------------------------------|
D|6-4-4----------------------------------------------------------------------|
A|6-4-2----------------------------------------------------------------------|
E|4-2------------------------------------------------------------------------|            
Submit corrections

↑ Back to top | Tablatures and chords for acoustic guitar and electric guitar, ukulele, drums are parodies/interpretations of the original songs. You may use it for private study, scholarship, research or language learning purposes only