Home » F » Fee Band »

Fee Band - Happy Day Bass

Artists:  A B C D E F G H I J K L M N O P Q R S T U V W X Y Z # 

Happy Day Bass

(ver. 1) Click to play this song!
Fee Band
Intro
G|---------------------------------------------------------------------------|
D|---------------------------------------------------------------------------|
A|4-4-4-4-4-4-4-4---------------1-1-1-1-1-1-1-1------------------------------|
E|----------------2-2-2-2-2-2-2-----------------4-4-4-4-4-4-4-4--------------|

Verse 1
G|---------------------------------------------------------------------------|
D|---------------------------------------------------------------------------|
A|4-4-4-4-4-4-4-4-4-4-4-4-4-4-4-4--------------------------------------------|
E|--------------------------------2-2-2-2-2-2-2-2-2-2-2-2-2-2-2-2------------|

G|---------------------------------------------------------------------------|
D|---------------------------------------------------------------------------|
A|1-1-1-1-1-1-1-1-1-1-1-1-1-1-1-1--------------------------------------------|
E|--------------------------------2-2-2-2-2-2-2-2-2-2-2-2-2-2-2-2------------|

G|---------------------------------------------------------------------------|
D|---------------------------------------------------------------------------|
A|4-4-4-4-4-4-4-4-4-4-4-4-4-4-4-4--------------------------------------------|
E|--------------------------------2-2-2-2-2-2-2-2-2-2-2-2-2-2-2-2------------|

G|---------------------------------------------------------------------------|
D|---------------------------------------------------------------------------|
A|1-1-1-1-1-1-1-1-1-1-1-1-1-1-1-1--------------------------------------------|
E|--------------------------------2-2-2-2-2-2-2-2-2-2-2-2-2-2-2-2------------|

G|---------------------------------------------------------------------------|
D|---------------------------------------------------------------------------|
A|---------------------------------------------------------------------------|
E|4-4-4-4-4-4-4-4/16-16-16-16-16-16-16-16------------------------------------|

Chorus 1
G|---------------------------------------------------------------------------|
D|---------------------------------------------------------------------------|
A|4-4-4-4-4-4-4-4-----------------1-1-1-1-1-1-1-1----------------------------|
E|----------------2-2-2-2-2-2-2-2-----------------4-4-4-4-4-4-4-4------------|

G|---------------------------------------------------------------------------|
D|---------------------------------------------------------------------------|
A|4-4-4-4-4-4-4-4-----------------1-1-1-1-1-1-1-1----------------------------|
E|----------------2-2-2-2-2-2-2-2-----------------4-4-4-4-4-4-4-4------------|

G|---------------------------------------------------------------------------|
D|---------------------------------------------------------------------------|
A|4-4-4-4-4-4-4-4-----------------1-1-1-1-1-1-1-1----------------------------|
E|----------------2-2-2-2-2-2-2-2-----------------4-4-4-4-4-4-4-4------------|

G|---------------------------------------------------------------------------|
D|---------------------------------------------------------------------------|
A|--------------------------------1-1-1-1-1-1-1-1----------------------------|
E|1-1-1-1-1-1-1-1-2-2-2-2-2-2-2-2-----------------4-4-4-4-4-4-4-4------------|

Verse 2
G|---------------------------------------------------------------------------|
D|---------------------------------------------------------------------------|
A|4-4-4-4-4-4-4-4-4-4-4-4-4-4-4-4--------------------------------------------|
E|--------------------------------2-2-2-2-2-2-2-2-2-2-2-2-2-2-2-2------------|

G|---------------------------------------------------------------------------|
D|---------------------------------------------------------------------------|
A|1-1-1-1-1-1-1-1-1-1-1-1-1-1-1-1--------------------------------------------|
E|--------------------------------2-2-2-2-2-2-2-2-2-2-2-2--------------------|

G|---------------------------------------------------------------------------|
D|---------------------------------------------------------------------------|
A|16\4-4-4-4-4-4-4-4-4-4-4-4-4-4-4-4-----------------------------------------|
E|-----------------------------------2-2-2-2-2-2-2-2-2-2-2-2-2-2-2-2---------|

G|---------------------------------------------------------------------------|
D|---------------------------------------------------------------------------|
A|1-1-1-1-1-1-1-1-----1-1-1-1-1-1--------------------------------------------|
E|----------------2-4-------------2-2-2-2-2-2-2-2-2-2-2-2-2-2-2-2------------|

G|---------------------------------------------------------------------------|
D|---------------------------------------------------------------------------|
A|---------------------------------------------------------------------------|
E|4-4-4-4-4-4/16-16-16-16-16-16-16-16-16-16----------------------------------|

Chorus 2
G|---------------------------------------------------------------------------|
D|---------------------------------------------------------------------------|
A|4-4-4-4-4-4-4-4-----------------1-1-1-1-1-1-1-1----------------------------|
E|----------------2-2-2-2-2-2-2-2-----------------4-4-4-4-4-4-4-4------------|

G|---------------------------------------------------------------------------|
D|---------------------------------------------------------------------------|
A|4-4-4-4-4-4-4-4-----------------1-1-1-1-1-1-1-1----------------------------|
E|----------------2-2-2-2-2-2-2-2-----------------4-4-4-4-4-4-4-4------------|

G|---------------------------------------------------------------------------|
D|---------------------------------------------------------------------------|
A|4-4-4-8h9p8h9-----------------1-1-1-8h9p8h9--------------------------------|
E|--------------2-2-2-2-2-2-2-2---------------4-4-4-4-4-4-4-4----------------|

G|---------------------------------------------------------------------------|
D|---------------------------------------------------------------------------|
A|--------------------------------1-1-1-1-1-1-1-1----------------------------|
E|1-1-1-1-1-1-1-1-2-2-2-2-2-2-2-2-----------------4-4-4-4-4-4-4-4------------|

Bridge
G|---------------------------------------------------------------------------|
D|---------------------------------------------------------------------------|
A|1--------------------------------------------------------------------------|
E|--------------------------------2------------------------------------------|

G|---------------------------------------------------------------------------|
D|---------------------------------------------------------------------------|
A|4--4--4--4--4--4--4--4-----------------------------------------------------|
E|---------------------------------------------------------------------------|

G|---------------------------------------------------------------------------|
D|---------------------------------------------------------------------------|
A|1-1-1-1-1-1-1-1-1-1-1-1-1-1-1-1--------------------------------------------|
E|--------------------------------1-1-1-1-1-1-1-1-1-1-1-1-1-1-1-1------------|

G|---------------------------------------------------------------------------|
D|---------------------------------------------------------------------------|
A|--------------------------------4--4--4--4--4-\1/-4--4--4--4\--------------|
E|2-2-2-2-2-2-2-2-2-2-2-2-2-2-2-2--------------------------------------------|

Chorus 3
G|---------------------------------------------------------------------------|
D|---------------------------------------------------------------------------|
A|1-1-1-1-1-1-1-1------------------------------------------------------------|
E|----------------4-4-4-4-4-4-4-4--------------------------------------------|

G|---------------------------------------------------------------------------|
D|---------------------------------------------------------------------------|
A|4-4-4-4-4-4-4-4-----------------1-1-1-1-1-1-1-1----------------------------|
E|----------------2-2-2-2-2-2-2-2-----------------4-4-4-4-4-4-4-4------------|

G|---------------------------------------------------------------------------|
D|---------------------------------------------------------------------------|
A|4-4-4-4-4-4-4-4-----------------1-1-1-1-1-1-1-1----------------------------|
E|----------------2-2-2-2-2-2-2-2-----------------4-4-4-4-4-4h6p4------------|

G|---------------------------------------------------------------------------|
D|---------------------------------------------------------------------------|
A|4-4-4-4-4-4-4-4/9-9-9-9-9-9-9-9-1-1-1-1-1-1-1-1----------------------------|
E|------------------------------------------------4-4-4-4-4-4-4-4------------|

G|---------------------------------------------------------------------------|
D|---------------------------------------------------------------------------|
A|4-4-4-8h9p8h9---------------1-1-1-8h9p8h9----------------------------------|
E|--------------2-2-2-8h9p8h9---------------4-4-4-4-4-4-4-4------------------|

G|---------------------------------------------------------------------------|
D|---------------------------------------------------------------------------|
A|--------------------------------1-1-1-1-1-1-1-1----------------------------|
E|1-1-1-1-1-1-1-1-2-2-2-2-2-2-2-2-----------------4-4-4-4-4-4-4-4------------|

Ending
G|---------------------------------------------------------------------------|
D|---------------------------------------------------------------------------|
A|4--------------------------------------------------------------------------|
E|---------------------------------------------------------------------------|            
Submit corrections

↑ Back to top | Tablatures and chords for acoustic guitar and electric guitar, ukulele, drums are parodies/interpretations of the original songs. You may use it for private study, scholarship, research or language learning purposes only