Home » F » Fee Band »

Fee Band - Happy Day Tabs

Artists:  A B C D E F G H I J K L M N O P Q R S T U V W X Y Z # 

Happy Day Tabs

(ver. 1) Click to play this song!
Fee Band
 Rating:
2/5 (29 votes)
                Tuning: Standard

Intro
e|---------------------------------------------------------------------------|
B|999999999-777777777-666666666-777-----99999999-77777777-66666666-77777777--|
G|666666666-666666666-666666666-666-----66666666-66666666-66666666-666666666-|
D|---------------------------------------------------------------------------|
A|---------------------------------------------------------------------------|
E|---------------------------------------------------------------------------|

Verse
e|---------------------------------------------------------------------------|
B|---------------------------------------------------------------------------|
G|1111-1010-6666666666-1111-101010/111111111111111111------------------------|
D|x-x--x-x--xxxxxxxxxx-x-x--x-x-x-/x-x-x-x-x-x-x-x-x-------------------------|
A|9-9--8-8--4444444444-9-9--8-8-8-/9-9-9-9-9-9-9-9-9-------------------------|
E|---------------------------------------------------------------------------|

e|---------------------------------------------------------------------------|
B|---------------------------------------------------------------------------|
G|15-1111\101010101010101010-8-10-1111111111111111111111116-11---------------|
D|x--x-x-\x-x-x-x-x-x-x-x-x--x-x--x-x-x-x-x-x-x-x-x-x-x-x-x-x----------------|
A|13-9-9-\8-8-8-8-8-8-8-8-8--6-8--9-9-9-9-9-9-9-9-9-9-9-9-4-9----------------|
E|---------------------------------------------------------------------------|

e|---------------------------------------------------------------------------|
B|---------------------------------------------------------------------------|
G|131313-111111-101010-13131313----------------------------------------------|
D|x-x-x--x-x-x--x-x-x--x-x-x-x-----------------------------------------------|
A|111111-9-9-9--8-8-8--11111111----------------------------------------------|
E|---------------------------------------------------------------------------|

Chorus
e|---------------------------------------------------------------------------|
B|99999999-77777777-66666666-77777777-99999999-77777777-66666666-77777777----|
G|66666666-66666666-66666666-66666666-66666666-66666666-66666666-66666666----|
D|---------------------------------------------------------------------------|
A|---------------------------------------------------------------------------|
E|---------------------------------------------------------------------------|

e|9---------11--------13--------14--13--11--9--------------------------------|
B|-----9---------9---------9-------------------------------------------------|
G|---------------------------------------------------------------------------|
D|---------------------------------------------------------------------------|
A|---------------------------------------------------------------------------|
E|---------------------------------------------------------------------------|

e|9---------11--------13--------14--13--11--9~-------------------------------|
B|-----9---------9---------9-------------------------------------------------|
G|---------------------------------------------------------------------------|
D|---------------------------------------------------------------------------|
A|---------------------------------------------------------------------------|
E|---------------------------------------------------------------------------|

Verse

Chorus

Bridge
e|9999999999999999-999999999999-111111-888888888888-666-9999999999999999-----|
B|---------------------------------------------------------------------------|
G|---------------------------------------------------------------------------|
D|---------------------------------------------------------------------------|
A|---------------------------------------------------------------------------|
E|---------------------------------------------------------------------------|

e|/1616161616161616161616161616161616----------------------------------------|
B|---------------------------------------------------------------------------|
G|---------------------------------------------------------------------------|
D|---------------------------------------------------------------------------|
A|---------------------------------------------------------------------------|
E|---------------------------------------------------------------------------|

Chorus
e|---------------------------------------------------------------------------|
B|66666666-77777777-99999999-77777777-66666666-77777777----------------------|
G|66666666-66666666-66666666-66666666-66666666-66666666----------------------|
D|---------------------------------------------------------------------------|
A|---------------------------------------------------------------------------|
E|---------------------------------------------------------------------------|

Chorus            
Submit corrections

↑ Back to top | Tablatures and chords for acoustic guitar and electric guitar, ukulele, drums are parodies/interpretations of the original songs. You may use it for private study, scholarship, research or language learning purposes only