» » »

Fear Factory - Echo Of My Scream Bass

Artists:  A B C D E F G H I J K L M N O P Q R S T U V W X Y Z # 

Echo Of My Scream Bass

(ver. 1) Click to play this song!
Fear Factory
 Rating:
4/5 (4 votes)


 Echo Of My Scream lessons Tabs too difficult? Try these video lessons and learn fast
 
                -------------------------------------------------------------------------------
			  ECHO OF MY SCREAM - Fear factory
-------------------------------------------------------------------------------


Tuning: Normal 5-String (B E A D G)

Intro of guitar

Verse 1:

G|-----------------------------------------------------------|
D|-----------------------------------------------------------|
A|-----------------------------------------------------------|
E|-0//3~~-3~~-3-5-7~~-19~~-19\\3~~-3~~-5-3-5-7~~-19~~-19\\---|
B|-----------------------------------------------------------|

G|----------------------------------------------------------|
D|----------------------------------------------------------|
A|----------------------------------------------------------|
E|-3~~-3~~-5-3-5-7~~-19~~-19\\3~~-3~~-3-5-7~~-19~~-19\\-----|
B|----------------------------------------------------------|

Chorus:

G|--------------------------------------------------------------------|
D|-----5-------5-------5---------------9-------9-------9-------9------|
A|--------------------------------------------------------------------| x2
E|-3-3---3-3-3---3-3-3---3-3-3-3-5-7-7---7-7-7---7-7-7---7-7-7---7----|
B|--------------------------------------------------------------------|

Preverse:

G|-------------------------------|
D|-------------------------------|
A|-------------------------------|
E|-3~~-3~~-3-5-7~~-19~~-19\\-----|
B|-------------------------------|

Verse 2:

G|----------------------------------------------------------|
D|----------------------------------------------------------|
A|----------------------------------------------------------|
E|-3~~-3~~-5-3-5-7~~-19~~-19\\3~~-3~~-5-3-5-7~~-19~~-19\\---|
B|----------------------------------------------------------|

G|-----------------------------|
D|-----------------------------|
A|-----------------------------|
E|-3~~-3~~-3-5-7~~-19~~-19\\---|

Chorus:

G|--------------------------------------------------------------------|
D|-----5-------5-------5---------------9-------9-------9-------9------|
A|--------------------------------------------------------------------| x2
E|-3-3---3-3-3---3-3-3---3-3-3-3-5-7-7---7-7-7---7-7-7---7-7-7---7----|
B|--------------------------------------------------------------------|

Bridge (Heavy):

G|----------------------------------------------------------|
D|----------------------------------------------------------|
A|----------------------------------------------------------| x3
E|----------------------------------------------------------|
B|-3-3-3-33-3-3-x-0~-0-0-0-0-0-0-0--------------------------|

G|----------------------------------------------------------|
D|----------------------------------------------------------|
A|----------------------------------------------------------|
E|----------------------------------------------------------|
B|-3-3-3-3-3-3-3-3-1-1-1-1-1-1-1-1--------------------------|

Bridge (Clean):

G|----------------------------------------------------------|
D|----------------------------------------------------------|
A|----------------------------------------------------------|
E|-3~~-3~~-5-3-5-7~~-19~~-19\\3~~-3~~-3-5-7~~-19~~-19\\-----|
B|----------------------------------------------------------|

G|-----------------------------|
D|-----------------------------|
A|-2-3~~~~~~~~~~-7~~~~~~~~~~~--|
E|-----------------------------|

Chorus:

G|--------------------------------------------------------------------|
D|-----5-------5-------5---------------9-------9-------9-------9------|
A|--------------------------------------------------------------------| x2
E|-3-3---3-3-3---3-3-3---3-3-3-3-5-7-7---7-7-7---7-7-7---7-7-7---7----|
B|--------------------------------------------------------------------|

Outro:

G|----------------------------------------------------------|
D|----------------------------------------------------------|
A|----------------------------------------------------------| x3
E|----------------------------------------------------------|
B|-3-3-3-33-3-3-x-0~-0-0-0-0-0-0-0--------------------------|

G|----------------------------------------------------------|
D|----------------------------------------------------------|
A|----------------------------------------------------------|
E|----------------------------------------------------------|
B|-3-3-3-3-3-3-3-3-1-1-1-1-1-1-1-1--------------------------|

G|----------------------------------------------------------|
D|----------------------------------------------------------|
A|----------------------------------------------------------| x3
E|----------------------------------------------------------|
B|-3-3-3-33-3-3-x-0~-0-0-0-0-0-0-0--------------------------|

G|----------------------------------------------------------|
D|----------------------------------------------------------|
A|----------------------------------------------------------|
E|----------------------------------------------------------|
B|-3-3-3-3-3-3-3-3-1-1-1-1-1-1-1-1--------------------------|

G|---------------------7----------|
D|-------------------5---5~~~~~---|
A|--------------------------------|
E|-3~~~~~~~~~~~~~~~~--------------|
B|--------------------------------|

END

| /  slide up
| \  slide down
| h  hammer-on
| p  pull-off
| ~  vibrato
| +  harmonic
| x  Mute note
===============================================================================
            
Submit corrections



        Echo Of My Scream lessons Hard to play? Try these video lessons and learn fast Echo Of My Scream lessons
        
↑ Back to top | Tablatures and chords for acoustic guitar and electric guitar, ukulele, drums are parodies/interpretations of the original songs. You may use it for private study, scholarship, research or language learning purposes only