Home » F » Fats Domino »

Fats Domino - Blueberry Hill Bass

Artists:  A B C D E F G H I J K L M N O P Q R S T U V W X Y Z # 

Blueberry Hill Bass

(ver. 1) Click to play this song!
Fats Domino
0:00  Intro        
G|-----------------------------------------------------|
D|-------9-9----9----------9-9----9--------------------|
A|-7--11-----11---7--7--11-----11---7-------9-9----9---|     
E|------------------------------------7--11-----11---7-|  

0:10  Couplet  
G|---------------------------------------------------------------------------|
D|----------9-9----9----------9-9----9---------------------------------------|
A|-7--7--11-----11---7--7--11-----11------------9-9----9----------9-9----7-9-|     
E|-------------------------------------7--7--11-----11---7--7--11-----11-----|  

G|---------------------------------------------------------------------------|
D|------11-11----11----------11-11----11-------------------------------------|
A|-9-13-------13----9--9--13-------13-------------9-9----9----------9-9----9-|     
E|---------------------------------------7--7--11-----11---7--7--11-----11---|  

0:33  Couplet  
G|---------------------------------------------------------------------------|
D|----------9-9----9----------9-9----9---------------------------------------|
A|-7--7--11-----11---7--7--11-----11------------9-9----9----------9-9----7-9-|     
E|-------------------------------------7--7--11-----11---7--7--11-----11-----|  

G|--------------------------------------------------------------|
D|------11-11----11----------11-11-11-11-------------------9--9-|
A|-9-13-------13----9--9--13-------------13----------9--9-------|     
E|------------------------------------------7--7--11------------|  

0:52  Pont    
G|---------------------------------------------------------------------------------------|
D|-8--8--9--9-----------------------------------------------7--7--------7--7-----------7-|
A|-------------9--9--------------9--9--------9--9--8--8--10-------7--7--------7--7--10---|     
E|-------------------7--7--9--9--------9--9----------------------------------------------|  

G|------------------------|
D|-7--7--7----------------|
A|----------10-8--------6-|     
E|----------------6-7-7---|  

1:15  Couplet  
G|---------------------------------------------------------------------------|
D|----------9-9----9----------9-9----9---------------------------------------|
A|-7--7--11-----11---7--7--11-----11------------9-9----9----------9-9----7-9-|     
E|-------------------------------------7--7--11-----11---7--7--11-----11-----|  

G|-----------------------------------------------------------|
D|------11-11----11----------11-11----11----------------9--9-|
A|-9-13-------13----9--9--13-------13-------------9--9-------|     
E|---------------------------------------7--7--11------------|  

1:34  Pont    
G|---------------------------------------------------------------------------|
D|----------------------------------------------------------7--7--------7--7-|
A|-9--9--------9--9--------------9--9--------------------10-------7--7-------|     
E|-------7--7--------7--7--9--9--------7--7--7--7--6--6----------------------|  

G|-------------------------------------|
D|----------7--7--7--7-----------------|
A|-7--7--10-------------10--8--------5-|     
E|-----------------------------7--7----|  

1:57  Couplet  
G|------------------------------------------------------------------------------|
D|----------9-9----9----------9-9-------9---------------------------------------|
A|-7--7--11-----11---7--7--11-----10-11------------9-9----9----------9-9----7-9-|     
E|----------------------------------------7--7--11-----11---7--7--11-----11-----|  

G|-----------------------------------------------------------|
D|------11-11----11----------11-11----11---------------------|
A|-9-13-------13----9--9--13-------13-------------9-9----9---|     
E|---------------------------------------7--7--11-----11---7-|  

            
Submit corrections

↑ Back to top | Tablatures and chords for acoustic guitar and electric guitar, ukulele, drums are parodies/interpretations of the original songs. You may use it for private study, scholarship, research or language learning purposes only