Home » F » Fats Domino »

Fats Domino - Blueberry Hill Tabs

Artists:  A B C D E F G H I J K L M N O P Q R S T U V W X Y Z # 

Blueberry Hill Tabs

(ver. 1) Click to play this song!
Fats Domino

[Verse]
 G q    q    q       q       C q       q       q       q             q      q        q       q
E|---------------------------|-3--p0-------------------------------|-----3-----------0---------------|
B|-----------0-------3-------|-------------------------------------|---------------------1-----------|
G|------0--------0-------0---|-----------------0---0-------0---2---|-------------0---------------0---|
D|------0------------0-------|---------2---2-----------2-----------|---------2---------------2-------|
A|---------------------------|-3-----------------------------------|-3---------------3---------------|
E|-3---------3---------------|-------------------------------------|---------------------------------|
        I    found   my        thrill                                     On         Blueberry 
     
 G q       q      q        q             q       q       q       q    D q       q       q       q
E|-0-----------------------------------|-----0-----------0------------|-------------------------------------|
B|-----3-------------------------------|---------------------3---0----|-0-----------------------------------|
G|-------------------------------------|-------------0----------------|-----2-----------2---2-------0---2---|
D|-----------------0---0-------0---2---|---------0---------------0----|---------0---4-----------4-----------|
A|---------2---2-----------2-----------|------------------------------|-0-----------------------------------|
E|-3-----------------------------------|-3---------------3------------|-------------------------------------|
   Hill,                                     On          Blueberry      Hill
    
   q       q       q       q       G q       q       q       q              q   q    q       q
E|-----0-----------0-------0-------|-0-----------------------------------|---------------------------|
B|---------------------------------|-----3-------------------------------|-----------0-------3-------|
G|-------------2-------2-------2---|-------------------------------------|------0--------0-------0---|
D|-0---------------0-------0-------|-----------------0---0-------0---2---|------0------------0-------|
A|---------0-----------------------|---------2---2-----------2-----------|---------------------------|
E|---------------------------------|-3-----------------------------------|-3---------3---------------|
       When        I       found     you                                        The  moon    stood 
                                                                                Though we're a- 
 C q       q       q       q            q       q       q       q      G q       q       q       q
E|-3--p0------------------------------|-----3-----------0--------------|-0----------------------------------|
B|------------------------------------|---------------------1----------|-----3------------------------------|
G|-----------------0---0-------0---2--|-------------0---------------0--|------------------------------------|
D|---------2---2-----------2----------|---------2---------------2------|-----------------0---0-------0---2--|
A|-3----------------------------------|-3---------------3--------------|---------2---2-----------2----------|
E|------------------------------------|--------------------------------|-3----------------------------------|
   still                                    On          Blueberry        Hill
   part                                     you        thought of me     still.  
                              
   q       q       q       q    D q       q       q       q             q       q       q    q
E|-----0-----------0------------|-------------------------------------|---------------------------|
B|---------------------3---0----|-0-----------------------------------|-----1-----------0---------|
G|-------------0----------------|-----2-----------2---2-------0---2---|-------------2--------2----|
D|---------0---------------0----|---------0---4-----------4-----------|-0-------0------------0----|
A|------------------------------|-0-----------------------------------|-----------------0---------|
E|-3---------------3------------|-------------------------------------|---------------------------|
       And         lingered un-   til                                       My          dream came 
       For         you were my    thrill,                                   On          Blueberry 

 G q    q    q       q        
E|---------------------------|
B|---------------------------|
G|-0-------------0-------0---|
D|------0------------0-------|
A|-----------2---------------|
E|-3-------------------------|
   true.
   Hill.  

[Chorus]
 G q    q    q       q         q       q       q       q         q       q       q       q         
E|---------------------------|-----------------------------0---|---------------------------------| 
B|------3--------0-------1---|-3-----------3---3---------------|-3-----------3-------0-------1---| 
G|-----------2---------------|-----0---------------0-----------|-----0-----------2---------------| 
D|------0------------0-------|---------0---------------0-------|---------0---------------0-------| 
A|---------------------------|---------------------------------|---------------------------------| 
E|-3---------3---------------|-3---------------3---------------|-3---------------3---------------| 
        The  wind in the       wil-        low played                        Love's sweet melo-     

   q       q       q       q         q       q   Bm7 q       q    F#m7 q       q       q       q        
E|-----------------------------0---|---------------------------------|-2-----------2---2---------------|
B|-3-------------------------------|-3-----------3---2---3-------5---|---------------------------------|
G|-----0-------0-------0-----------|-----0---------------------------|-----2---------------2-------2---|
D|---------0---------------0-------|---------0---------------4-------|---------4---------------2-------|
A|---------------------------------|---------------------------------|---------------------------------|
E|-3---------------3---------------|-3---------------2---------------|-2---------------2---------------|
   dy.                                           But all of those      vows        you made
                                                                      
   q       q  Bbm7 q       q       D q       q       q       q
E|---------2-------2---------------|---------------------------------|
B|-------------------------3-------|-1-------------------------------|
G|-----2-------2-------2-------2---|-----2-------2-------2-------2---|
D|---------4---------------4-------|---------0---------------0-------|
A|---------------------------------|-0---------------0---------------|
E|-2---------------2---------------|---------------------------------|
           Were    never   to        be.            
Submit corrections

↑ Back to top | Tablatures and chords for acoustic guitar and electric guitar, ukulele, drums are parodies/interpretations of the original songs. You may use it for private study, scholarship, research or language learning purposes only