» » »

Father John Misty - The Ideal Husband Tabs

Artists:  A B C D E F G H I J K L M N O P Q R S T U V W X Y Z # 

The Ideal Husband Tabs

(ver. 1) Click to play this song!
Father John Misty
 Rating:
4/5 (4 votes)

 The Ideal Husband  lessons Tabs too difficult? Try these video lessons and learn fast
 
                 key:   Dm minor
 time:  4/4, shuffled
 tempo: Q=134 bpm

Josh has his acoustic guitar tuned one full step down (D G C F A D).
(The chords names are notated in absolute terms.)


The song consists of two main parts, each of 4 bars.

[A]:
 D                D       F        G                Gm
|0---0---0-0-0-0-|0---0---3-3-3-3-|0---0---0-0-0-0-|0---0-0-0-0-0-0-|
|0---0---0-0-0-0-|0---0---0-0-0-0-|2---2---2-2-2-2-|1---1-1-1-1-1-1-|
|1---1---1-1-1-1-|1---1---0-0-0-0-|2---2---2-2-2-2-|2---2-2-2-2-2-2-|
|2---2---2-2-2-2-|2---2---0-0-0-0-|2---2---2-2-2-2-|2---2-2-2-2-2-2-|
|2---2---2-2-2-2-|2---2---x-x-x-x-|0---0---0-0-0-0-|0---0-0-0-0-0-0-|
|0---0---0-0-0-0-|0---0---3-3-3-3-|----------------|----------------|

[B]:
 Bb               Bb               G                Gm
|0---0---0-0-0-0-|0---0-0-0-0-0-0-|0---0---0-0-0-0-|0---0-0-0-0-0-0-|
|1---1---1-1-1-1-|1---1-1-1-1-1-1-|2---2---2-2-2-2-|1---1-1-1-1-1-1-|
|0---0---0-0-0-0-|0---0-0-0-0-0-0-|2---2---2-2-2-2-|2---2-2-2-2-2-2-|
|2---2---2-2-2-2-|2---2-2-2-2-2-2-|2---2---2-2-2-2-|2---2-2-2-2-2-2-|
|3---3---3-3-3-3-|3---3-3-3-3-3-3-|0---0---0-0-0-0-|0---0-0-0-0-0-0-|
|3---3---3-3-3-3-|3---3-3-3-3-3-3-|----------------|----------------|




 FORM
************

Intro:       1 bar of drums
             A  x 2


Verse:       A  x 2
             B  x 4
             B  x 2


Drum-Interlude:
 D                D                D
|0---0---0-0-0-0-|0---0-0-0-0-0-0-|0---------------|----------------|
|0---0---0-0-0-0-|0---0-0-0-0-0-0-|0---------------|----------------|
|1---1---1-1-1-1-|1---1-1-1-1-1-1-|1---DRUMS-------|----------------|
|2---2---2-2-2-2-|2---2-2-2-2-2-2-|2---------------|----------------|
|2---2---2-2-2-2-|2---2-2-2-2-2-2-|2---------------|----------------|
|0---0---0-0-0-0-|0---0-0-0-0-0-0-|0---------------|----------------|


Intro:       A  x 2


Verse:       A  x 2
             B  x 4
             B  x 2


Bridge:      B  x 4


Intro:       A  x 4  (The electric guitar goes nuts.)


Ending:
(Live, the band make this ending twice as long.)
 D                D
|0---0---0---0---|0---0---0---0---:
|0---0---0---0---|0---0---0---0---:
|1---1---1---1---|1---1---1---1---:
|2---2---2---2---|2---2---2---2---:
|2---2---2---2---|2---2---2---2---:
|0---0---0---0---|0---0---0---0---:




 LYRICS
**********
Julian
He's gonna take my files

Every woman that I've slept with
Every friendship I've neglected
Didn't call when grandma died
I spend my money getting drunk and high
I've done things unprotected
Proceeded to drive home wasted
Bought things to win over siblings
I've said awful things, such awful things

And now
Now it's out
And now
Now it's out

Julian
He's gonna take my files

Telling people jokes to shut them up
Resenting people that I love
Sleep in 'til two then doin' sh*t
Just stay in bed and later lie 'bout it
Obsessing over greying hair
Knowing just what people wanna hear
Binging on unearned attention
I've said awful things, such awful things

And now
Now it's out
And now
Now it's out

I came by at seven in the morning
Seven in the morning, seven in the morning
I came by at seven in the morning
I said, "Baby, I'm finally succumbing"
Said something dumb like "I'm tired of running
Tired of running, tired of running"
Let's put a baby in the oven
Wouldn't I make the ideal husband?
            
Submit corrections


        The Ideal Husband  lessons Hard to play? Try these video lessons and learn fast The Ideal Husband  lessons
        
↑ Back to top | Tablatures and chords for acoustic guitar and electric guitar, ukulele, drums are parodies/interpretations of the original songs. You may use it for private study, scholarship, research or language learning purposes only