» » »

Father John Misty - I Went to the Store One Day Chords

Artists:  A B C D E F G H I J K L M N O P Q R S T U V W X Y Z # 

I Went to the Store One Day Chords

(ver. 1) Click to play this song!
Father John Misty
 Rating:
4/5 (4 votes)

 I Went to the Store One Day lessons Tabs too difficult? Try these video lessons and learn fast
 
                  key:   Eb major
  time:  4/4
  tempo: Q=75 bpm


-Josh tunes his acoustic guitar one full step down (D G C F A D).
-You could also remain in standard tuning, put capo on the 3rd fret,
 and then voice the chords on the lower strings (E A D G) instead.

+----------------------------------------------------------------------------+



FOREPLAY
-Play these 8 bars for the verses as well.
-In terms of finger picking, the most efficient picking is to use one finger
 for each string, whatever fingers you prefer using. Josh uses T I M R.


 Ab6                              Adim7
|--------------------------------|--------------------------------|
|--3-------3-------3-------3-----|--3-------3-------3-------3-----|
|----0-------0-------0-------0---|----1-------1-------1------(0)--|
|------3-------3-------3-------3-|------3-------3-------3------(0)|
|1-------1-------1-------1-------|2-------2-------2-------2-------|
|--------------------------------|--------------------------------|
                            (The (0) simply mean the open strings being
                              picked when Josh switches between chords.)

 Eb/Bb                            Bb              Bb7
|--------------------------------|--------------------------------|
|--1-------1-------1-------1-----|--1-------1-------1-------1-----|
|----2-------2-------2------(0)--|----0-------0-------3------(0)--|
|------3-------3-------3------(0)|------2-------2-------2------(0)|
|3-------3-------3-------3-------|3-------3-------3-------3-------|
|--------------------------------|--------------------------------|


 Eb                               G7
|--------------------------------|--------------------------------|
|--1-------1-------1-------1-----|--2-------2-------2-------2-----|
|----2-------2-------2-------2---|----0-------0-------0-------0---|
|------3-------3-------3------(0)|------2-------2-------2------(0)|
|3-------3-------3-------3-------|0-------0-------0-------0-------|
|--------------------------------|--------------------------------|


 Adim7                            Ab6
|--------------------------------|--------------------------------|
|--3-------3-------3-------3-----|--3-------3-------3-------3-----|
|----1-------1-------1------(0)--|----0-------0-------0-------0---|
|------3-------3-------3-------3-|------3-------3-------3-------3-|
|2-------2-------2-------2-------|1-------1-------1-------1-------|
|--------------------------------|--------------------------------|




VERSE 1
" We met in a parking lot
  just buying coffee and cigarettes, firewood and bad wine long since gone
  but I'm still drunk and hot, wide awake and breathing hard



VERSE 2
" And now, in just one year's time
  I've become jealous, rail-thin, prone to paranoia when I'm stoned.
  Cause isn't true love 'Someone oughta put me in a home'?



VERSE 3
" Say, do you wanna get married,
  and put an end to our endless progressive tendency to scorn
  provincial concepts like your dowry and your daddy's farm?


-Play the first 7 bars as usual; then this 8th bar instead, before the bridge:

 Ab6
|--------------------------------:
|--3-------3---------------------:
|----0-------0-------------------:     (The : are used to indicate
|------3-------3-----------------:      a freer time between bars.)
|1-------1-------1---------------:
|--------------------------------:
                    " For love to



BRIDGE
 Bb7                              Bb7
:--------------------------------:--------------------------------|
:--------------------------------:--------------------------------|
:3-------------------------------:3-------------------------------|
:2-------------------------------:2-------------------------------|
:3-------------------------------:3-------------------------------|
:--------------------------------:--------------------------------|
 find                   us of all people                   I never


 Eb                               Adim7
|--------------------------------|--------------------------------|
|--1-------1-------1-------1-----|--3-------3-------3-------3-----|
|----2-------2-------2-------2---|----1-------1-------1-------1---|
|------3-------3-------3------(0)|------3-------3-------3------(0)|
|3-------3-------3-------3-------|2-------2-------2-------2-------|
|--------------------------------|--------------------------------|
 thought it      be      so       simple


 G7                                G7
|--------------------------------||--------------------------------|
|--2-------2-------2-------2-----||--2-------2-------2-------2-----|
|----0-------0-------0-------0---||----0-------0-------0-------0---|
|------2-------2-------2-------2-||------2-------2-------2-------2-|
|0-------0-------0-------0-------||0-------0-------0-------0-------|
|--------------------------------||--------------------------------|
                                   ooh...


 Adim7                            Ab6
|--------------------------------|--------------------------------|
|--3-------3-------3-------3-----|--3-------3-------3-------3-----|
|----1-------1-------1------(0)--|----0-------0-------0-------0---|
|------3-------3-------3-------3-|------3-------3-------3-------3-|
|2-------2-------2-------2-------|1-------1-------1-------1-------|
|--------------------------------|--------------------------------|




VERSE 4 (INSTRUMENTAL)
" ooh...



VERSE 5
" Let's buy a plantation house
  and let the yard grow wild till we don't need the signs that say 'Keep out'
  I've got some money left, and it's cheaper in the South



VERSE 6
" I need someone I can trust
  to protect me from our seven daughters when my body says 'Enough!'
  Don't let me die in a hospital, I'll save the big one for the last time we make love



ENDING
 Abm                              Eb
|--------------------------------|--------------------------------|
|--2-------2-------2-------2-----|--1-------1-------1-------1-----|
|----3-------3-------3-------3---|----2-------2-------2-------2---|
|------3-------3-------3------(0)|------3-------3-------3------(0)|
|1-------1-------1-------1-------|3-------3-------3-------3-------|
|--------------------------------|--------------------------------|
               " Insert        here 


 G7                               Adim7
|--------------------------------|--------------------------------|
|--2-------2-------2-------2-----|--3-------3-------3-------3-----|
|----0-------0-------0-------0---|----1-------1-------1-------1---|
|------2-------2-------2-------2-|------3-------3-------3------(0)|
|0-------0-------0-------0-------|2-------2-------2-------2-------|
|--------------------------------|--------------------------------|
       a sentiment,  RE:  'our golden               years'


 Ab6                              Abm
|--------------------------------:--------------------------------|
|--3-------3---------------------:2-------------------------------|
|----0-------0-------------------:3-------------------------------|
|------3-------3-----------------:3-------------------------------|
|1-------1-------1---------------:1-------------------------------|
|--------------------------------:--------------------------------|
                        All cause I       went    to      the


 Eb/Bb                            Bb
|--------------------------------|--------------------------------|
|--1-------1-------1-------1-----|--1-------1-------1-------1-----|
|----2-------2-------2-------2---|----0-------0-------0-------0---|
|------3-------3-------3------(0)|------2-------2-------2------(0)|
|3-------3-------3-------3-------|3-------3-------3-------3-------|
|--------------------------------|--------------------------------|
 store                            one                           day


 Eb/Bb                            Bb                                     Eb
|--------------------------------|--------------------------------------:------:
|--1-------1-------1-------1-----|--------------------------------------:-1^---:
|----2-------2-------2------(0)--|0^------------------------------------:-2^---:
|------3-------3-------3---------|2^------------------------------------:-3^---:
|3-------3-------3-------3-------|3^------------------------------------:-3^---:
|--------------------------------|--------------------------------------:------:
                                     "I've seen you around, what's your name?"
            
Submit corrections


        I Went to the Store One Day lessons Hard to play? Try these video lessons and learn fast I Went to the Store One Day lessons
        
↑ Back to top | Tablatures and chords for acoustic guitar and electric guitar, ukulele, drums are parodies/interpretations of the original songs. You may use it for private study, scholarship, research or language learning purposes only