» » »

Father John Misty - Real Love Baby Bass

Artists:  A B C D E F G H I J K L M N O P Q R S T U V W X Y Z # 

Real Love Baby Bass

(ver. 1) Click to play this song!
Father John Misty
 Rating:
4.4/5 (5 votes)

 Real Love Baby lessons Tabs too difficult? Try these video lessons and learn fast
 
                [Intro] 
  * * * *  * * *   *   * * * *  * * *   *   
G|--------|----9------|--------|----9------|
D|--------|------9----|--------|------9----|
A|--------|--------7-9|10------|--------5-7|
E|--------|-----------|--------|-----------|

[Verse 1]
  * * *   *   * *  *  *  * * *   *   * * * *  
G|-----------|----------|-----------|--------|
D|-----------|----------|5-5-5-5-5-5|5--5-5-5|
A|5-5-5-5-5-7|-7-7-7-7-7|-----------|--------|
E|-----------|----------|-----------|--------|

  * * *   *   * * *   *   *  *  *    *    * *   *   *    
G|-----------|----9------|---------------|--------------|
D|-----------|------9----|---------------|---------/9-12|
A|5-5-5-5-5-7|-7-7----7-9|10-10-10-10--10|-10-10-10-----|
E|-----------|-----------|---------------|--------------|

  * * *   *   *  *   *  *  *  *  *     *   *  *   *     *     
G|-----------|-------9----|---------------|------------------|
D|----7------|-----9------|---------------|------------------|
A|5-5---5-6-7|-7-7-----7-9|10-10-10-10--10|-10----10-------10|
E|-----------|------------|---------------|----10----10-10---|

  * * *   *   * *  *   *  *  *  *     *   *  *   *     *   
G|-----------|-----------|---------------|----------------|
D|-----------|-----------|---------------|----------------|
A|5-5-5---5/7|-7-7-7-7--9|10-10-10-10--10|-10-10-----3-5-7|
E|------5----|-----------|---------------|-------3h5------|

[Chorus 1]
  * * *   *   * * *  *   *  *  *    *    *  *  * *  
G|-----------|----------|---------------|----------|
D|-----------|----------|---------------|----/9-7-5|
A|5-5-----5-7|---7-7-7-9|10-10-10-10--10|-10-------|
E|----5-7----|----------|---------------|----------|

  * * *   *   * * *  *   *  *   *    *   *  *  *   *    
G|-----------|----------|---------------|--------------|
D|-----------|----------|---------------|---------/9-12|
A|5-5-5---5-7|---7-7-7-7|10-10-10-10--10|-10-10-10-----|
E|------7----|----------|---------------|--------------|

[Verse 2]
  * * *   *   * * * *  *  *  *  *    *    *  *  * *  
G|-----------|-----------|---------------|----------|
D|-----------|-----9-----|---------------|----/9-7--|
A|5-5-5-5-5/7|7-7---7-7-9|10-10-10-10--10|-10------9|
E|-----------|-----------|---------------|----------|

  * * *  *   * *  *   *   *  *  *    *  * * *  *   
G|----------|---------9--|-------/12-12|----------|
D|----------|-----9------|-------------|----------|
A|5-5-5-5--7|---7---7---7|10-10--------|----------|
E|----------|------------|-------------|-----5-5-7|

  * * *   *   * *  *   *   *  *  *     *   *  *  *  *  
G|-----------|-----9------|---------------|-----------|
D|-----------|-------9----|---------------|-------/9-7|
A|5-5-5-5-5/7|---7-----7-9|10-10-10-10--10|-10-10-----|
E|-----------|------------|---------------|-----------|

  * * *   *   * *  *   *   *  *  *     *   * *   *    *   
G|-----------|------------|---------------|--------------|
D|-----------|------------|---------------|--------------|
A|5-5-5-5-2/7|---7-7-7--9/|10-10-10-10\/10|---10-10------|
E|-----------|------------|---------------|---------3-5-7|

[Chorus 2]
  * * *   *   * * * *  *  *  *    *     * *   *  *    
G|----7------|--------|----------------|-------------|
D|------7----|--------|----------------|-------/9----|
A|5-5-----5-7|---7-7-9|10-10--------10-|---10-----12-|
E|-----------|--------|------10-12-----|-------------|

  * * *   *   *   *   *   *   *  *  *     *   * *  *   *  *  
G|-----------|---------------|---------------|--------------|
D|-----------|----------9---9|---------------|--------------|
A|5-5-----5-7|7-7-7-7-7---7--|10-10-10-10--10|---10-10-10-10|
E|----5-7----|---------------|---------------|--------------|

  * * *   *   * *    *   *   *  *  *     *   *  *    *   *   
G|-----------|--------------|---------------|---------------|
D|-----------|--------------|---------------|--------9-9-7--|
A|5-5-5-----7|-7-7-7-7-7-7-9|10-10-10-10--10|-10--10-------9|
E|------5-7--|--------------|---------------|---------------|

  * * *   *   * *  *   *   *  *  *     *   * * * *   
G|-----------|------------|---------------|--------|
D|-----------|------------|-------------/9|-7-5-4--|
A|5-5-5-----7|-7-7-7-7-7-7|10-10-10-10----|-------7|
E|------5-7--|------------|---------------|--------|

[Verse 3/Chorus 3]
  * * *   *   * *  *   *   *  *  *    *    * * * *  
G|-----------|------------|--------------|--------|
D|-----------|-----9------|------------/9|-7-5-4--|
A|5-5-5-----7|-7-7---7-7-9|10-10---------|-------7|
E|------5-7--|------------|------10-12---|--------|

  * * *   *   * * *   *   *  *  *     *     * *  * *  
G|-----------|----9------|---------------12|---11-9-7|
D|-----------|------9----|---------12-14---|---------|
A|5-5-5-5-5-7|-7-7----7-9|10-10-10---------|---------|
E|-----------|-----------|-----------------|---------|

  *   * *   *   * *  *   *   *  *  *    *    *  *  *   *      
G|7------------|------------|---------------|---------------|
D|--7-----7----|------------|---------------|---------------|
A|----5-5-----7|-7-7-7-7-7-9|10-10-10-10--10|-10-10-10-10-10|
E|----------7--|------------|---------------|---------------|

  * * *   *   * * *   *  * * *   *    * * * * 
G|-----------|----------|------------|--------||
D|-----------|----------|5-5-5-5-5-5-|-5-5-5-5|| FADE OUT
A|5-5-5-5-5-7|-7-7-7-7-7|------------|--------||
E|-----------|----------|------------|--------||


            
Submit corrections


        Real Love Baby lessons Hard to play? Try these video lessons and learn fast Real Love Baby lessons
        
↑ Back to top | Tablatures and chords for acoustic guitar and electric guitar, ukulele, drums are parodies/interpretations of the original songs. You may use it for private study, scholarship, research or language learning purposes only