» » »

Fat Freddys Drop - Wandering Eye Bass

Artists:  A B C D E F G H I J K L M N O P Q R S T U V W X Y Z # 

Wandering Eye Bass

(ver. 1) Click to play this song!
Fat Freddys Drop
 Rating:
3.7/5 (6 votes)

 Wandering Eye lessons Tabs too difficult? Try these video lessons and learn fast
 
                Band: Fat Freddy's Drop

Tuning: Drop D (lower bottom E string to D)

Key:
	x = mute note
	~ = let note ring
	h = hammer-on

Wrote this tab because I couldn't find it anywhere, which was quite strange because this 
a great song by a great Kiwi band.

Continue playing the seperate riffs multiple times unless otherwise stated.


Main Riff: (0:03 - 3:07)

G---------------------------------------------------------------------|
D---------------------------------------------------------------------|
A--x-2-2---x-2-2---x-2-2---x-2-2-----5-5---x-5-5---x-5-5---x-5-5------|
D--------------------------------0-0------------------------------0-0-|


Main Riff Outro: (3:07 - 3:17) (Play this once)

G------------------------------------------------------------------------|
D------------------------------------------------------------------------|
A--x-2-2---x-2-2---x-2-2---x-2-2-----5-5---x-5-5---x-5-5---x-5-5---------|
D--------------------------------0-0------------------------------7-9~~~~|


Rest (3:17 - 3:29)


Bridge: (3:29 - 3:47) (Play this once)

G--------------------------------------------------------------------------|
D---7h9-7-----0-------------------------4-------------------7h9---7---0----|
A---------9-7---h2--2--2--2--2--2--2--2---2--2--2--2--2--2------9---7---h2-|
D--------------------------------------------------------------------------|

The last B note on the A string is the first note of the main riff which comes next:


Main Riff: (3:48 - 4:27) (same as beginning)

G----------------------------------------------------------------------|
D----------------------------------------------------------------------|
A--x-2-2---x-2-2---x-2-2---x-2-2------5-5---x-5-5---x-5-5---x-5-5------|
D---------------------------------0-0------------------------------0-0-|


Main Riff Outro 2:  (4:27 - 4:37) (Play this once)

G-------------------------------------------------------------------------|
D-----------------------------------------------------------------0-------|
A--x-2-2---x-2-2---x-2-2---x-2-2------5-5---x-5-5---x-5-5---7h9-7---0h2-2-|
D---------------------------------0-0-------------------------------------|


Bridge 2: (4:37 - 5:56)

G---------|
D---------|
A--x-2-2--|
D---------|


Rest: (5:56 - 6:03)


Breakdown Intro: (6:03 - 6:04)
Play this part only once, but let the note ring until the breakdown at 6:12.

G--------|
D--------|
A-0h2~~~~|
D--------|

Now I'm not too sure if there is bass in this breakdown, as it is quite hard to hear, 
I just play this during it.


Breakdown: (6:12 - 7:00)

G----------------------------------7-----9-|
D--------------7---7-----9---9---5-----7---|
A----9---9---5---5-----7---7---------------|
D--9---9-----------------------------------|


Breakdown Outro: (7:00 - 7:08) (Play this once)

G------------------------------------------|
D--------------------------------5~~~~~~~~~|
A------------5~~~~~~~~~7~~~~~~~~~----------|
D--9~~~~~~~~~------------------------------|


Outro Bridge: (7:08 - 7:16) (Play this once)

G----------------------------------|
D----------------------------------|
A-2-2~~---2-2~~---2-2~~---2-2~~----|
D------------------------------0-2-|


Outro: (7:16 - 9:24)

G---------------|
D---------------|
A-2-2--2-2--2-2-|
D---------------|


Repeat this (above) until 9:24 when the bass fades out, but be careful with the timing
of this last part as the bass plays out of sync with the rest of the band.

That's all 9 minutes and 49 seconds of it!

Feel free to contact me if you have any trouble with the tab.
            
Submit corrections


        Wandering Eye lessons Hard to play? Try these video lessons and learn fast Wandering Eye lessons
        
↑ Back to top | Tablatures and chords for acoustic guitar and electric guitar, ukulele, drums are parodies/interpretations of the original songs. You may use it for private study, scholarship, research or language learning purposes only