» » »

Fatboy Slim - The Rockafeller Skank Tabs

Artists:  A B C D E F G H I J K L M N O P Q R S T U V W X Y Z # 

The Rockafeller Skank Tabs

(ver. 3) Click to play this song!
Fatboy Slim
 Rating:
3.5/5 (22 votes)

 The Rockafeller Skank lessons Tabs too difficult? Try these video lessons and learn fast
 
                  G               A#          C
e|---------------------------------------------------------------------------|
B|---------------------------------------------------------------------------|
G|---------------------------------------------------------------------------|
D|---------------------------------------------------------------------------|
A|----------------5---5-6-5---3----------------------------------------------|
E|-3---3-3---3-3-----------------4-------------------------------------------|

Except for that bit at 1:24 which goes like:

 G                 Em
e|-----3--------------0--3---7---7-------------------------------------------|
B|--3-----3---1---0----------------------------------------------------------|
G|---------------------------------------------------------------------------|
D|---------------------------------------------------------------------------|
A|---------------------------------------------------------------------------|
E|---------------------------------------------------------------------------|

and at the 2:20 mark, but that is literally just the Cm chord repeatedly.            
Submit corrections


        The Rockafeller Skank lessons Hard to play? Try these video lessons and learn fast The Rockafeller Skank lessons
        
↑ Back to top | Tablatures and chords for acoustic guitar and electric guitar, ukulele, drums are parodies/interpretations of the original songs. You may use it for private study, scholarship, research or language learning purposes only