» » »

Fastball - The Way Chords

Artists:  A B C D E F G H I J K L M N O P Q R S T U V W X Y Z # 

The Way Chords

(ver. 1) Click to play this song!
Fastball
 Rating:
4.3/5 (26 votes)

 The Way lessons Tabs too difficult? Try these video lessons and learn fast
 
                [INTRO]
                                      F#m      F#m      F#m      F#m
G:--------|--------|--------|--------|--------|--------|--------|--------|
D:--------|--------|--------|--------|--------|--------|--------|--------|
A:--------|--------|--------|--------|----4--4|----4--4|----4--4|----4--4|
E:--------|--------|--------|--------|2--2----|2--2----|2--2----|2--2----|

[VERSE]
       F#m           F#m                         Bm        Bm 
  They made up their minds      And they started packing
      C#7             C#7              F#m      F#m
  And left before the sun cBme up that day
     F#7      F#7           Bm          Bm 
  An exit to eternal summer slacking
      F#m                       C#7                  F#m       F#m
  But where were they going without ever knowing the way?

(Silently...)
  F#m      F#m      Bm       Bm       C#7      C#7      F#m      F#m
G:--------|--------|--------|--------|--------|--------|--------|--------|
D:--------|--------|--------|--------|--------|--------|--------|--------|
A:----4--4|----4--4|2--2----|2--2----|4--4----|4--4----|----4--4|----4--4|
E:2--2----|2--2----|----2--2|----2--2|----4--4|----4--4|2--2----|2--2----|

  F#7      F#7      Bm       Bm       F#m      C#7      F#m      F#m
G:--------|--------|--------|--------|--------|--------|--------|--------|
D:--------|--------|--------|--------|--------|--------|--------|--------|
A:----4--4|----4--4|2--2----|2--2----|----4--4|4--4----|----4--4|----4--4|
E:2--2----|2--2----|----2--2|----2--2|2--2----|----4--4|2--2----|2--2----|

[VERSE]
       F#m                F#m                  Bm         Bm 
  They drank up the wine       And they got to talking
      C#7            C#7               F#m      F#m
  But now had more important things to say
      F#7                F#7               Bm          Bm 
  And when the car broke down they started walking
      F#m                       C#7                  F#m     E7 
  But where were they going without ever knowing the way?

  F#m      F#m      Bm       Bm       C#7      C#7      F#m      F#m
G:--------|--------|--------|--------|--------|--------|--------|--------|
D:--------|--------|--------|--------|--------|--------|--------|--------|
A:--------|-------1|2--22-01|2--22-22|4--44--2|4--44---|--------|--------|
E:2--22-01|2--22-4-|--------|--------|------4-|------01|2--22-01|2--22-01|

  F#7      F#7      Bm       Bm       F#m      C#7      F#m      E7 
G:--------|--------|--------|--------|--------|--------|--------|--------|
D:--------|--------|--------|--------|--------|--------|--------|--------|
A:--------|----4---|2--22-01|2--22---|------12|4--44---|--------|--------|
E:2--22-01|2--2----|--------|------01|2--22---|------01|2--22-22|0--02 4 |

[CHORUS]
                     A                         E
  Anyone can see the road that they walk on is paved with gold
  F#m                        C#7
  It's always summer they'll never get cold
          D                         A                 E          E7 
  They'll never get hungry, they'll never get old and grey
                    A                 E
  You can see their shadows wandering off somewhere
       F#m                         C#7
  They won't make it home but they really don't care
       D                           A               E         C#7       C#7
  They wanted the highway  They're happier there today       Today...

  A        E        F#m      C#7      D        A        E        E7 
G:--------|--------|--------|--------|--------|--------|--------|--------|
D:------2-|--------|--------|----3---|--------|------2-|--------|--------|
A:0--04---|--------|----0-2-|4--4--4-|5--54 2 |0--04---|--------|--------|
E:--------|0--04-0-|2--2----|--------|--------|--------|0--04-0-|0--02 4 |

  A        E        F#m      C#7      D        A        E        C#7      C#7
G:--------|--------|--------|--------|--------|--------|--------|--------|--------|
D:------2-|--------|--------|----3---|--------|------2-|--------|--------|--------|
A:0--04---|--------|----0-2-|4--4--4-|5--54 2 |0--04---|--------|44444444|44444444|
E:--------|0--04-0-|2--2----|--------|--------|--------|0--04-0-|--------|--------|

[VERSE]
        F#m              F#m                    Bm           Bm 
  Their children woke up      And they couldn't find them
      C#7             C#7              F#m      F#m
  And left before the sun cBme up that day
       F#7                F#7           Bm          Bm 
  They just drove off and left it all behind 'em
      F#m                       C#7                  F#m       E7 
  But where were they going without ever knowing the way?

  F#m      F#m      Bm       Bm       C#7      C#7      F#m      F#m
G:--------|--------|--------|--------|--------|--------|--------|--------|
D:--------|--------|--------|--------|--------|--------|--------|--------|
A:--------|-------1|2--22-01|2--22-22|4--44--2|4--44---|--------|--------|
E:2--22-01|2--22-4-|--------|--------|------4-|------01|2--22-01|2--22-01|

  F#7      F#7      Bm       Bm       F#m      C#7      F#m      E7 
G:--------|--------|--------|--------|--------|--------|--------|--------|
D:--------|--------|--------|--------|--------|--------|--------|--------|
A:--------|----4---|2--22-01|2--22---|------12|4--44---|--------|--------|
E:2--22-01|2--2----|--------|------01|2--22---|------01|2--22-22|0--02 4 |

[CHORUS]
                     A                         E 
  Anyone can see the road that they walk on is paved with gold
  F#m                        C#7
  It's always summer they'll never get cold
          D                         A                 E          E7 
  They'll never get hungry, they'll never get old and grey
                    A                 E 
  You can see their shadows wandering off somewhere
       F#m                         C#7
  They won't make it home but they really don't care
       D                           A               E         C#7
  They wanted the highway  They're happier there today       Today...

  A        E        F#m      C#7      D        A        E        E7 
G:--------|--------|--------|--------|--------|--------|--------|--------|
D:------2-|--------|--------|----3---|--------|------2-|--------|--------|
A:0--04---|--------|----0-2-|4--4--4-|5--54 2 |0--04---|--------|--------|
E:--------|0--04-0-|2--2----|--------|--------|--------|0--04-0-|0--02 4 |

  A        E        F#m      C#7      D        A        E        C#7      C#7
G:--------|--------|--------|--------|--------|--------|--------|--------|--------|
D:------2-|--------|--------|----3---|--------|------2-|--------|--------|--------|
A:0--04---|--------|----0-2-|4--4--4-|5--54 2 |0--04---|------2-|44444444|44444444|
E:--------|0--04-0-|2--2----|--------|--------|--------|0--04---|--------|--------|

[INSTRUMENTAL]

  F#7      F#7      Bm       Bm       F#m      C#7      F#m      F#m 
G:--------|--------|--------|--------|--------|--------|--------|--------|
D:--------|--------|--------|--------|--------|--------|----2---|--------|
A:--------|-------1|2--22-01|2--22-24|------12|4--44---|-----42-|--------|
E:2--22-01|2--22-4-|--------|--------|2--22---|------01|2--2---4|2       |

[CHORUS]
                     A                         E 
  Anyone can see the road that they walk on is paved with gold
  F#m                        C#7
  It's always summer they'll never get cold
          D                         A                 E          E7 
  They'll never get hungry, they'll never get old and grey
                    A                 E 
  You can see their shadows wandering off somewhere
       F#m                         C#7
  They won't make it home but they really don't care
       D                           A               E         C#7
  They wanted the highway  They're happier there today       Today...

  A        E        F#m      C#7      D        A        E        E7 
G:--------|--------|--------|--------|--------|--------|--------|--------|
D:------2-|--------|--------|----3---|--------|------2-|--------|--------|
A:0--04---|--------|----0-2-|4--4--4-|5--54 2 |0--04---|--------|--------|
E:--------|0--04-0-|2--2----|--------|--------|--------|0--04-0-|0--02 4 |

  A        E        F#m      C#7      D        A        E        
G:--------|--------|--------|--------|--------|--------|--------|
D:------2-|--------|--------|----3---|--------|------2-|--------|
A:0--04---|--------|----0-2-|4--4--4-|5--54 2 |0--04---|------2-|
E:--------|0--04-0-|2--2----|--------|--------|--------|0--04---|

  C#7      C#7      C#7      C#7      
G:--------|--------|--------|--------|
D:--------|--------|--------|--------|
A:44444444|44444444|44444444|4\\\\\\0|
E:--------|--------|--------|--------|

[CODA]

  F#7      F#7      Bm       Bm       F#m      C#7      F#m      F#m 
G:--------|--------|--------|--------|--------|--------|--------|--------|
D:--------|--------|--------|--------|--------|--------|----2---|--------|
A:--------|-------1|2--22-01|2--22-24|------12|4--44---|-----42-|--------|
E:2--22-01|2--22-4-|--------|--------|2--22---|------01|2--2---4|2       |            
Submit corrections


        The Way lessons Hard to play? Try these video lessons and learn fast The Way lessons
        
↑ Back to top | Tablatures and chords for acoustic guitar and electric guitar, ukulele, drums are parodies/interpretations of the original songs. You may use it for private study, scholarship, research or language learning purposes only