Home » F » Fastball »

Fastball - Out Of My Head Acoustic Live Chords

Artists:  A B C D E F G H I J K L M N O P Q R S T U V W X Y Z # 

Out Of My Head Acoustic Live Chords

(ver. 2) Click to play this song!
Fastball
 Rating:
4.3/5 (18 votes)
                [Intro]
[Guitar 1]
G  D  Em  G  C  G  A  D11  C#11  C11  

[Guitar 2]
  G            D        Em      G                    C     G
e|--------------------------|-------10--------------|------10h12--10-----------|
B|--------------------------|---10b----10b--8---8h10|8-----10h12--10-----------|
G|----------------7---7-8-9-|-----------------9-----|--------------------------|
D|5-------7-5-7\9-----------|-----------------------|--------------------------|
A|--------------------------|-----------------------|--------------------------|
E|--------------------------|-----------------------|--------------------------|

     A          D11      C#11 C11                                         G
e|--------------3--33--3--2---1-------------------------------------------3----|
B|--------------3--33--3--2---1-------------------------------------------3----|
G|--------------5--55--5--4---3-------------0-0---2p0-2p0-----------------0----|
D|-------2h4-2--4--44--4--3---2---------0h2------------------2p0----------0----|
A|---3h4--------5--55--5--4---3-------------------------------------------2----|
E|------------------------------------------------------------------------3----|
      
[Verse]
G                          Bm
Sometime I feel, like I am drunk behind the wheel
C                 G         A              D
The wheel of possibilities, however it may roll
G                               Bm
Give it a spin, see if you can somehow factor in,
    C                   G
You know there’s always more than one way
   A                D                  G
To say exactly, what you mean to say

[Chorus]
(G)          D
Was outta my head, 
             Em
Was outta my mind,
                 G            C
How could I have ever been so blind
                     G           A              D       G
I was waitin’ for an indication, it was hard to find
                 D
No matter what I say, 
            Em
Only what I do,
                G                C
I never mean to do bad things to you
                G                A                     D                C
So quiet but I finally woke up, if your sad then it’s time you spoke up too

[Solo]   
(Guitar 1)
G Bm C G A D

[Guitar 2]
   C                             G 
e|------------------------------------------------------------------------|
B|-------------------------8-10--10b-8-------8-10-10b-8-------8-10p8p0----|
G|---------------------7-9-----------------9----------------9-------------|
D|---------5-7p5-7-7/9----------------------------------------------------|
A|-3----/7----------------------------------------------------------------|
E|------------------------------------------------------------------------|

   Bm                               C                 G 
e|------------------------------------8----7----5-----3-3-----------------|
B|------------10(10)--10-10---------------------------3-3-----------------|
G|-7-9-7-9/11----11---------11\-----/9-9\7--7\5--5\4----------------------|
D|------------------------------------------------------------------------|
A|------------------------------------------------------------------------|
E|------------------------------------------------------------------------|

    A             D                                                    G  
e|--5-5-5h7-5-----10-10-10h12-10--10-10-10-----------------------------3--|
B|--5-5-5h7-5-----10-10-10h12-10--10-10-10-----------------------------3--|
G|------------7--------------------------------------------------------0--|
D|---------------------------------------------------------------------0--|
A|---------------------------------------------------------------------2--|
E|---------------------------------------------------------------------3--|

[Chorus Repeat*]
           A                     D11         C#11 C
..........if your sad then it’s time you spoke up too
e|-------------------------------3-----------2----1-----------------------|
B|-------------------------------3-----------2----1-----------------------|
G|-------------------------------5-----------4----3-----------------------|
D|-------------------------------4-----------3----2-----------------------|
A|-------------------------------5-----------4----3-----------------------|
E|------------------------------------------------------------------------|

                                   G7
e|---------------------------------1-1-1-1-1-1-1-1-1-1--------------------|
B|---------------------------------3-3-3-3-3-3-3-3-3-3--------------------|
G|-------0h2--2/4-2--0---0---------0--------------------------------------|
D|---0h2---------------2-----------0--------------------------------------|
A|---------------------------------2--------------------------------------|
E|---------------------------------3--------------------------------------|

            
Submit corrections

↑ Back to top | Tablatures and chords for acoustic guitar and electric guitar, ukulele, drums are parodies/interpretations of the original songs. You may use it for private study, scholarship, research or language learning purposes only