» » »

Fall Out Boy - After Life Of The Party Tabs

Artists:  A B C D E F G H I J K L M N O P Q R S T U V W X Y Z # 

After Life Of The Party Tabs

(ver. 1) Click to play this song!
Fall Out Boy
 Rating:
4/5 (5 votes)


 After Life Of The Party lessons Tabs too difficult? Try these video lessons and learn fast
 
                

/ = Slide Up
\ = Slide Down
h = Hammer on
p = Pull Off
> = Let Ring

Standard Tuning (EADGBE)


Verse

Guitar 1 (played very softly & briefly in the verse)
E-----------------------------------------|
B-8-10-10-8-10-10-8-10-10-8-10-8-10-10-10-|    
G-----------------------------------------|    
D-----------------------------------------|
A-----------------------------------------|
E-----------------------------------------|

E--------------------------------------------|
B-8h10p8h10p8h10p8h10-10-8h10p8h10p8h10p8h10-|    
G--------------------------------------------|    
D--------------------------------------------|
A--------------------------------------------|
E--------------------------------------------|


Chorus

Guitar 1
E--------------------------------------------------------------|
B--------------------------------------------------------------|    
G-3-3-3-3-5-5-5-5-7-7-7-7-10-10-10-10-1010101010101010-9999999-|    
D-x-x-x-x-x-x-x-x-x-x-x-x-x--x--x--x--x-x-x-x-x-x-x-x--xxxxxxx-|
A-1-1-1-1-3-3-3-3-5-5-5-5-8--8--8--8--8-8-8-8-8-8-8-8--7777777-|
E--------------------------------------------------------------|
                                                                          x2
E----------------------------------------------------------------------|
B----------------------------------------------------------------------|    
G-5-5-5-5-7-7-7-7-9-9-9-9-12-12-12-12-14141414141414141212121212121212-|    
D-x-x-x-x-x-x-x-x-x-x-x-x-x--x--x--x--x-x-x-x-x-x-x-x-x-x-x-x-x-x-x-x--|
A-3-3-3-3-5-5-5-5-7-7-7-7-10-10-10-10-12121212121212121010101010101010-|
E----------------------------------------------------------------------|

Guitar 2
E-----------------------------------|          |----------| 
B-----------------------------------|    x4    |----------|
G-3333333333333333------------------|          |----------| 
D-3333333333333333-3333333333333333-|          |----3>----|
A-1111111111111111-3333333333333333-|          |----3>----|
E------------------1111111111111111-|          |----1>----|


<>

Bridge x2

Guitar 1
E-----------------------|
B-----------------------|    x4 
G-------10-10-9-9-------|    
D-10-10-----------10-10-|
A-----------------------|
E-----------------------|

E-----------------------|
B-----------------13-13-|    x2 
G-------9-9-10-10-------|    
D-10-10-----------------|
A-----------------------|
E-----------------------|

E-----------------------|
B-----------------------|    x2 
G-------10-10-9-9-------|    
D-10-10-----------10-10-|
A-----------------------|
E-----------------------|

Guitar 2
E-------------------------------------|
B-------------------------------------|    x2
G-33333333-33333333-------------------|    
D-33333333-33333333-33333333-33333333-|
A-11111111-11111111-33333333-33333333-|
E-------------------11111111-11111111-|


Continued...

Guitar 1
E--------------------------------------------------------------|
B--------------------------------------------------------------|    
G-3-3-3-3-5-5-5-5-7-7-7-7-10-10-10-10-1010101010101010-9999999-|    
D-x-x-x-x-x-x-x-x-x-x-x-x-x--x--x--x--x-x-x-x-x-x-x-x--xxxxxxx-|
A-1-1-1-1-3-3-3-3-5-5-5-5-8--8--8--8--8-8-8-8-8-8-8-8--7777777-|
E--------------------------------------------------------------|
                                                                          x2
E----------------------------------------------------------------------|
B----------------------------------------------------------------------|    
G-5-5-5-5-7-7-7-7-9-9-9-9-12-12-12-12-14141414141414141212121212121212-|    
D-x-x-x-x-x-x-x-x-x-x-x-x-x--x--x--x--x-x-x-x-x-x-x-x-x-x-x-x-x-x-x-x--|
A-3-3-3-3-5-5-5-5-7-7-7-7-10-10-10-10-12121212121212121010101010101010-|
E----------------------------------------------------------------------|

E-----------|
B-----------|    
G----10>----|    
D----x------|
A----8>-----|
E-----------|

Guitar 2
E-----------------------------------|          
B-----------------------------------|   
G-3333333333333333------------------|         
D-3333333333333333-3333333333333333-|         
A-1111111111111111-3333333333333333-|          
E------------------1111111111111111-|
         
E-------------------------------------|           
B-------------------------------------|        
G-3333333333333333--------------------|          
D-3333333333333333-33333333-5-55-5-55-|          
A-1111111111111111-33333333-5-55-5-55-|          
E------------------11111111-3-33-3-33-|          

E-----------------------------------|          |----------| 
B-----------------------------------|    x2    |----------|
G-3333333333333333------------------|          |----------| 
D-3333333333333333-3333333333333333-|          |----3>----|
A-1111111111111111-3333333333333333-|          |----3>----|
E------------------1111111111111111-|          |----1>----|
            
Submit corrections



        After Life Of The Party lessons Hard to play? Try these video lessons and learn fast After Life Of The Party lessons
        
↑ Back to top | Tablatures and chords for acoustic guitar and electric guitar, ukulele, drums are parodies/interpretations of the original songs. You may use it for private study, scholarship, research or language learning purposes only