» » »

Fall Out Boy - Hold Me Tight Or Dont Tabs

Artists:  A B C D E F G H I J K L M N O P Q R S T U V W X Y Z # 

Hold Me Tight Or Dont Tabs

(ver. 1) Click to play this song!
Fall Out Boy
 Rating:
4.3/5 (22 votes)

 Hold Me Tight Or Dont lessons Tabs too difficult? Try these video lessons and learn fast
 
                     C#m     F#m     F#m      G#    x2
e|--4-x-4-x-5-x-5-x-5-x-5-x-4-x-4--------------------------------------------|
B|--5-x-5-x-7-x-7-x-7-x-7-x-4-x-4--------------------------------------------|
e|--4-x-4-x-5-x-5-x-5-x-5-x-5-x-5--------------------------------------------|
D|---------------------------------------------------------------------------|
A|---------------------------------------------------------------------------|
E|---------------------------------------------------------------------------|

The second time keep strumming while muting after the first F#m.

This verse it's just the same as the intro

[Verse]
     C#m     F#m     F#m      G#   x3 
e|--4-x-4-x-5-x-5-x-5-x-5-x-4-x-4--------------------------------------------|
B|--5-x-5-x-7-x-7-x-7-x-7-x-4-x-4--------------------------------------------|
G|--6-x-6-x-6-x-6-x-6-x-6-x-5-x-5--------------------------------------------|
D|---------------------------------------------------------------------------|
A|---------------------------------------------------------------------------|
E|---------------------------------------------------------------------------|

The 4th time it's kinda this:

Coma-tose     I  woke up, no luck.
     C#m     C#m     F#m     F#m
  e|--4---x---4---x---5---x---5---x------------------------------------------|
  B|--5---x---5---x---7---x---7---x------------------------------------------|
  G|--6---x---6---x---6---x---6---x------------------------------------------|
  D|-------------------------------------------------------------------------|
  A|-------------------------------------------------------------------------|
  E|-------------------------------------------------------------------------|

      I  woke up  no  luck  
      A   A   A   A   G#
  e|--5---5---5---5---4------------------------------------------------------|
  B|--5---5---5---5---4------------------------------------------------------|
  G|--6---6---6---6---5------------------------------------------------------|
  D|-------------------------------------------------------------------------|
  A|-------------------------------------------------------------------------|
  E|-------------------------------------------------------------------------|

[Pre-Chorus]
This is kinda hard to get, just hear the song and you'll notice how it's played. Anyways,
I'll leave a guide under the chords
             
             [1]                          [2]

     F#m      G#     C#m              C#m      G#
e|---------------------------------------------------------------------------|
B|---------------------------------------------------------------------------|
G|---------------------------------------------------------------------------|
D|------------------6-6-6------------6-6-6-----------------------------------|
A|--4-4-4---6-6-6---4-4-4------------4-4-4----6-6-6--------------------------|
E|--2-2-2---4-4-4-----------------------------4-4-4--------------------------|
    ↑ ↓ ↑   ↑ ↓ ↑   ↑ ↓ ↑              ↑        ↑        

[1] The first ↓ it's done, then you wait one time and play the ↑ ↓ quickly

                                                                    C#m    G#
[2] This part it's like the end of a compass. Play 'em while the "I wanna sleep on..."

 Then it comes the end of the pre-chorus and he plays just the low E. Ends up with a vibrato.
of "down".

    I need to come doooooooown
     F#m      G#
e|---------------------------------------------------------------------------|
B|---------------------------------------------------------------------------|
G|---------------------------------------------------------------------------|
D|---------------------------------------------------------------------------|
A|---------------------------------------------------------------------------|
E|--2-2-2---4-4-4--4-4-4-4-4~--------------------------------------------------|
    ↑ ↓ ↑   ↑ ↓ ↑  ↑ ↑ ↑ ↑ ↑ 

[Chorus]
If you got how to play the pre-chorus, this'll be easy. Just follow the drums.

     C#m      B       A       B      F#m      G#     F#m     F#m  
e|---------------------------------------------------------------------------|
B|---------------------------------------------------------------------------|
G|---------------------------------------------------------------------------|
D|--6-6-6---4-4-4---2-2-2---4-4-4--------------------------------------------|
A|--4-4-4---2-2-2---0-0-0---2-2-2---4-4-4---6-6-6---4-4-4---4-4-4------------|
E|----------------------------------2-2-2---4-4-4---2-2-2---2-2-2------------|
    ↑ ↓ ↑   ↑ ↓ ↑   ↑ ↓ ↑   ↑ ↓ ↑   ↑ ↓ ↑   ↑ ↓ ↑   ↑ ↓ ↑   ↑ ↓ ↑

Play this twice and don't play the last F#m in the second repeat.

Play these same chords at the bridge.

-------------------------- . --------------------------

[2nd Verse]

The second verse it's the same as the first one, but Joe plays this:

    I love you to death but I just...
e|---------------------------------------------------------------------------|
B|-------------9-------------------------------------------------------------|
G|-----9---------------------------------------------------------------------|
D|6/11------11---------------------------------------------------------------|
A|------------------11-11--11b12br11-----------------------------------------|
E|---------------------------------------------------------------------------|

I saw it at some FoB's live.


[Bridge]
Just shut up for a bit and then come back with the same chords from the Chorus but stay on F#m.

'Cause I'm past the limits, the distance between us, it sharpens me like a -

knife
             Paaaaaaast the limits, the distance between us, it sharpens me like a...

     C#m      B       A       B      F#m     F#m     F#m     F#m  
e|---------------------------------------------------------------------------|
B|---------------------------------------------------------------------------|
G|---------------------------------------------------------------------------|
D|--6-6-6---4-4-4---2-2-2---4-4-4--------------------------------------------|
A|--4-4-4---2-2-2---0-0-0---2-2-2---4-4-4---4-4-4---4-4-4---4-4-4------------|
E|----------------------------------2-2-2---2-2-2---2-2-2---2-2-2------------|
    ↑ ↓ ↑   ↑ ↓ ↑   ↑ ↓ ↑   ↑ ↓ ↑   ↑ ↓ ↑   ↑ ↓ ↑   ↑ ↓ ↑   ↑ ↓ ↑

Try to strum the last F#m before he screams "knife".

Play again the chorus and we're close to the end.


 [Outro]
Play the same chords from the Chorus with one chord varation and you're done.

An-n-n-n-n-n-n-n-nother day goes by so hold me tight, hold me tight or don't

     C#m      B       A       B      F#m      G#     F#m     F#m  
e|---------------------------------------------------------------------------|
B|---------------------------------------------------------------------------|
G|---------------------------------------------------------------------------|
D|--6-6-6---4-4-4---2-2-2---4-4-4--------------------------------------------|
A|--4-4-4---2-2-2---0-0-0---2-2-2---4-4-4---6-6-6---4-4-4---4-4-4------------|
E|----------------------------------2-2-2---4-4-4---2-2-2---2-2-2------------|
    ↑ ↓ ↑   ↑ ↓ ↑   ↑ ↓ ↑   ↑ ↓ ↑   ↑ ↓ ↑   ↑ ↓ ↑   ↑ ↓ ↑   ↑ ↓ ↑

I'm pretty sure that this isn't how our story ends, so hold me tight, hold me tight or don't

     C#m      B       A       B      F#m      F#m     F#m     F#m  
e|---------------------------------------------------------------------------|
B|---------------------------------------------------------------------------|
G|---------------------------------------------------------------------------|
D|--6-6-6---4-4-4---2-2-2---4-4-4--------------------------------------------|
A|--4-4-4---2-2-2---0-0-0---2-2-2---4-4-4---6-6-6---4-4-4---4-4-4------------|
E|----------------------------------2-2-2---4-4-4---2-2-2---2-2-2------------|
    ↑ ↓ ↑   ↑ ↓ ↑   ↑ ↓ ↑   ↑ ↓ ↑   ↑ ↓ ↑   ↑ ↓ ↑   ↑ ↓ ↑   ↑ ↓ ↑
            
Submit corrections


        Hold Me Tight Or Dont lessons Hard to play? Try these video lessons and learn fast Hold Me Tight Or Dont lessons
        
↑ Back to top | Tablatures and chords for acoustic guitar and electric guitar, ukulele, drums are parodies/interpretations of the original songs. You may use it for private study, scholarship, research or language learning purposes only