» » »

Fall Out Boy - Ghostbusters Im Not Afraid Tabs

Artists:  A B C D E F G H I J K L M N O P Q R S T U V W X Y Z # 

Ghostbusters Im Not Afraid Tabs

(ver. 1) Click to play this song!
Fall Out Boy
 Rating:
4.3/5 (27 votes)

 Ghostbusters Im Not Afraid  lessons Tabs too difficult? Try these video lessons and learn fast
 
                [Intro]
 G2
E|----------------------------------------------------------------|
B|----------------------------------------------------------------|
G|----------------------------------------------------------------|
D|3---------------------------------------------------------------|
A|-----------4-------3-------2-------1----------------------------|
D|-------------------------------------------6-------0------------|

E|----------------------------------------------------------------|
B|----------------------------------------------------------------|
G|----------------------------------------------------------------|
D|3-3-------------3-3-------------3-3-------------3-3-------------|
A|----3-3-6-6-5-5-----3-3-6-6-5-5-----3-3-6-6-5-5-----3-3-6-6-5-5-|
D|----------------------------------------------------------------|

  G1
E|--------5-------------------------------------------------------|
B|----6-6-----6---8-----------------------6-6-6-6-----8---6---6---|
G|--------------------8---------------------------8---------------|
D|----------------------------------------------------------------|
A|----------------------------------------------------------------|
D|----------------------------------------------------------------|
 |G2
E|----------------------------------------------------------------|
B|----------------------------------------------------------------|
G|----------------------------------------------------------------|
D|3-3-------------3-3-------------3-3-------------3-3-------------|
A|----3-3-6-6-5-5-----3-3-6-6-5-5-----3-3-6-6-5-5-----3-3-6-6-5-5-|
D|----------------------------------------------------------------|


[Verse]

E|----------------------------------------------------------------|
B|----------------------------------------------------------------|
G|----------------------------------------------------------------|
D|3-3-------------3-3-------------3-3-------------3-3-------------| X2
A|----3-3-6-6-5-5-----3-3-6-6-5-5-----3-3-6-6-5-5-----3-3-6-6-5-5-|
D|----------------------------------------------------------------|


[Chorus]

E|----------------------------------------------------------------|
B|9~--6-9~--6-9~--6-9~--6-9~--6---9~--6-9~--6-9~--6-9~--6-9~---6--|
G|----------------------------------------------------------------|
D|----------------------------------------------------------------|
A|----------------------------------------------------------------|
D|----------------------------------------------------------------|
 |
E|----------------------------------------------------------------|
B|----------------------------------------------------------------|
G|----------------------------------------------------------------|
D|3-3-3-3-3-3-1-1-1-1-1-1-1-1-1-1-0-0-0-0-0-0-8-8-8-8-8-8-8-8-8-8-|
A|3-3-3-3-3-3-1-1-1-1-1-1-1-1-1-1-0-0-0-0-0-0-8-8-8-8-8-8-8-8-8-8-|
D|3-3-3-3-3-3-1-1-1-1-1-1-1-1-1-1-0-0-0-0-0-0-8-8-8-8-8-8-8-8-8-8-|


E|8~--4-8~--4-8~--4-8~--4-8~--4---8~--4-8~--4-8~--4-8~--4-8-----8----|
B|9~--6-9~--6-9~--6-9~--6-9~--6---9~--6-9~--6-9~--6-9~--6-11b13-11b13|
G|-------------------------------------------------------------------|
D|-------------------------------------------------------------------|
A|-------------------------------------------------------------------|
D|-------------------------------------------------------------------|
 |
E|-------------------------------------------------------------------|
B|-------------------------------------------------------------------|
G|-------------------------------------------------------------------|
D|3-3-3-3-3-3-1-1-1-1-1-1-1-1-1-1-0-0-0-0-0-0-8-8--------------------|
A|3-3-3-3-3-3-1-1-1-1-1-1-1-1-1-1-0-0-0-0-0-0-8-8--------------------|
D|3-3-3-3-3-3-1-1-1-1-1-1-1-1-1-1-0-0-0-0-0-0-8-8--------------------|


[Break]

E|----------------------------------------------------------------|
B|----------------------------------------------------------------|
G|----------------------------------------------------------------|
D|3-3-------------3-3-------------3-3-------------3-3-------------| X2
A|----3-3-6-6-5-5-----3-3-6-6-5-5-----3-3-6-6-5-5-----3-3-6-6-5-5-|
D|----------------------------------------------------------------|


[Verse]

E|----------------------------------------------------------------|
B|----------------------------------------------------------------|
G|----------------------------------------------------------------|
D|3-3-------------3-3-------------3-3-------------3-3-------------| X2
A|----3-3-6-6-5-5-----3-3-6-6-5-5-----3-3-6-6-5-5-----3-3-6-6-5-5-|
D|----------------------------------------------------------------|


[Chorus]

E|----------------------------------------------------------------|
B|9~--6-9~--6-9~--6-9~--6-9~--6---9~--6-9~--6-9~--6-9~--6-9~---6--|
G|----------------------------------------------------------------|
D|----------------------------------------------------------------|
A|----------------------------------------------------------------|
D|----------------------------------------------------------------|
 |
E|----------------------------------------------------------------|
B|----------------------------------------------------------------|
G|----------------------------------------------------------------|
D|3-3-3-3-3-3-1-1-1-1-1-1-1-1-1-1-0-0-0-0-0-0-8-8-8-8-8-8-8-8-8-8-|
A|3-3-3-3-3-3-1-1-1-1-1-1-1-1-1-1-0-0-0-0-0-0-8-8-8-8-8-8-8-8-8-8-|
D|3-3-3-3-3-3-1-1-1-1-1-1-1-1-1-1-0-0-0-0-0-0-8-8-8-8-8-8-8-8-8-8-|


E|8~--4-8~--4-8~--4-8~--4-8~--4---8~--4-8~--4-8~--4-8~--4-8-----8----|
B|9~--6-9~--6-9~--6-9~--6-9~--6---9~--6-9~--6-9~--6-9~--6-11b13-11b13|
G|-------------------------------------------------------------------|
D|-------------------------------------------------------------------|
A|-------------------------------------------------------------------|
D|-------------------------------------------------------------------|
 |
E|-------------------------------------------------------------------|
B|-------------------------------------------------------------------|
G|-------------------------------------------------------------------|
D|3-3-3-3-3-3-1-1-1-1-1-1-1-1-1-1-0-0-0-0-0-0-8-8-8-8-8-8-8-8-8-8----|
A|3-3-3-3-3-3-1-1-1-1-1-1-1-1-1-1-0-0-0-0-0-0-8-8-8-8-8-8-8-8-8-8----|
D|3-3-3-3-3-3-1-1-1-1-1-1-1-1-1-1-0-0-0-0-0-0-8-8-8-8-8-8-8-8-8-8----|


[Break]

E|----------------------------------------------------------------|
B|----------------------------------------------------------------|
G|----------------------------------------------------------------|
D|3-3-------------3-3-------------3-3-------------3-3-------------| X2
A|----3-3-6-6-5-5-----3-3-6-6-5-5-----3-3-6-6-5-5-----3-3-6-6-5-5-|
D|----------------------------------------------------------------|


[Verse]

Listen for when the part drops out.
E|----------------------------------------------------------------|
B|----------------------------------------------------------------|
G|----------------------------------------------------------------|
D|3-3-------------3-3-------------3-3-------------3-3-------------| X4
A|----3-3-6-6-5-5-----3-3-6-6-5-5-----3-3-6-6-5-5-----3-3-6-6-5-5-|
D|----------------------------------------------------------------|


[Break]

Just the bass for four bars, then...

E|----------------------------------------------------------------|
B|----------------------------------------------------------------|
G|----------------------------------------------------------------|
D|3-3-------------3-3-------------3-3-------------3-3-------------|
A|----3-3-6-6-5-5-----3-3-6-6-5-5-----3-3-6-6-5-5-----3-3-6-6-5-5-|
D|----------------------------------------------------------------|


[Bridge]

E|----------------------------------------------------------------|
B|----------------------------------------------------------------|
G|----------------------------------------------------------------|
D|--------------------6---5---------------------------------------|
A|----------------------------6b----------------------------------|
D|----------------------------------------------------------------|
 |                                                                 X2
E|----------------------------------------------------------------|
B|----------------------------------------------------------------|
G|----------------------------------------------------------------|
D|3-3-------------------------------------------------------------|
A|3-3-------------------------------------------------------------|
D|3-3-------------------------------------------------------------|


[Chorus]

E|----------------------------------------------------------------|
B|9~--6-9~--6-9~--6-9~--6-9~--6---9~--6-9~--6-9~--6-9~--6-9~---6--|
G|----------------------------------------------------------------|
D|----------------------------------------------------------------|
A|----------------------------------------------------------------|
D|----------------------------------------------------------------|
 |
E|----------------------------------------------------------------|
B|----------------------------------------------------------------|
G|----------------------------------------------------------------|
D|3-3-3-3-3-3-1-1-1-1-1-1-1-1-1-1-0-0-0-0-0-0-8-8-8-8-8-8-8-8-8-8-|
A|3-3-3-3-3-3-1-1-1-1-1-1-1-1-1-1-0-0-0-0-0-0-8-8-8-8-8-8-8-8-8-8-|
D|3-3-3-3-3-3-1-1-1-1-1-1-1-1-1-1-0-0-0-0-0-0-8-8-8-8-8-8-8-8-8-8-|


E|8~--4-8~--4-8~--4-8~--4-8~--4---8~--4-8~--4-8~--4-8~--4-8-----8----|
B|9~--6-9~--6-9~--6-9~--6-9~--6---9~--6-9~--6-9~--6-9~--6-11b13-11b13|
G|-------------------------------------------------------------------|
D|-------------------------------------------------------------------|
A|-------------------------------------------------------------------|
D|-------------------------------------------------------------------|
 |
E|-------------------------------------------------------------------|
B|-------------------------------------------------------------------|
G|-------------------------------------------------------------------|
D|3-3-3-3-3-3-1-1-1-1-1-1-1-1-1-1-0-0-0-0-0-0-8-8-8-8-8-8-8-8-8-8----|
A|3-3-3-3-3-3-1-1-1-1-1-1-1-1-1-1-0-0-0-0-0-0-8-8-8-8-8-8-8-8-8-8----|
D|3-3-3-3-3-3-1-1-1-1-1-1-1-1-1-1-0-0-0-0-0-0-8-8-8-8-8-8-8-8-8-8----|


[Outro]

E|----------------------------------------------------------------|
B|----------------------------------------------------------------|
G|----------------------------------------------------------------|
D|----3-3-7---3---5-----------------------3-3-3-3-----5-----------|
A|--------------------6---------------------------6---------------|
D|----------------------------------------------------------------|

E|----------------------------------------------------------------|
B|----------------------------------------------------------------|
G|----------------------------------------------------------------|
D|----3-3-7---3---5-----------------------3-3-3-3-----5---3\------|
A|--------------------6---------------------------6---------------|
D|----------------------------------------------------------------|
            
Submit corrections


        Ghostbusters Im Not Afraid  lessons Hard to play? Try these video lessons and learn fast Ghostbusters Im Not Afraid  lessons
        
↑ Back to top | Tablatures and chords for acoustic guitar and electric guitar, ukulele, drums are parodies/interpretations of the original songs. You may use it for private study, scholarship, research or language learning purposes only