» » »

Fall Out Boy - From Now On We Are Enemies Tabs

Artists:  A B C D E F G H I J K L M N O P Q R S T U V W X Y Z # 

From Now On We Are Enemies Tabs

(ver. 1) Click to play this song!
Fall Out Boy
 Rating:
3.8/5 (20 votes)

 From Now On We Are Enemies lessons Tabs too difficult? Try these video lessons and learn fast
 
                Guitar 1 - Rhythm
Guitar 2 - Lead
Intro Lead:

E|----------------------------------|------------------------------|
B|------12--15--12------12--15--12--|------12--15--12--10--12------|
G|--14--------------14--------------|--14----------------------12--|
D|----------------------------------|------------------------------|
A|----------------------------------|------------------------------|
D|----------------------------------|------------------------------|

Intro Lead Continued:

E|----------------------------------|------------------------------|
B|------12--15--12------12--15--12--|--15--12--10------------------|
G|--14--------------14--------------|--------------12--14--12------|
D|----------------------------------|--------------------------14--|
A|----------------------------------|------------------------------|
D|----------------------------------|------------------------------|

Intro Rhythm:

E|--------------------------|
B|--------------------------|
G|--------5-----------------|
D|--0--2--5-----------------|
A|--0--2--3-----5--2--0-----|
D|--0--2-----------------5--|

Verse Rhythm "I just wanna be better than your...":

E|-----------------------------|
B|-----------------------------|
G|-----------------------5--5--|
D|-----2--2--------------5--5--|
A|-----2--2--5--2--5-----3--3--|
D|-----2--2--------------------|
       /  /              /  /

Verse Lead (Comes in at "A downward spiral, just a pirouette"):

E|----------------------------------------------|
B|----------------------------------------------|
G|--11/12----14/12---11/12--------12/9-------|
D|----------------------------------------------|
A|--9/10-----12/10-----9/10--------10/7---------|
D|----------------------------------------------|

Chorus 1 Rhythm "I'm Just The Man On The Balcony":

E|--------------|-----------|
B|--------------|-----------|
G|--------5--7--|--------5--|
D|--5--4--5--7--|--2--0--5--|
A|--5--4--3--5--|--2--0--3--|
D|--5--4--------|--2--0-----|

Octave Chord 1 -Guitar 2 starts to repeat this chord in the background at "Rejoice, Rejoice":
G|--7--
D|-----
A|--5--
D|-----

Chorus 2 Rhythm "Lunatic God Or The God For A Lunatic?":

E|--------------|-----------|--------|--------|
B|--------------|-----------|--------|--------|
G|-----------9--|-----7--9--|--------|--------|
D|-----5--7-----|--5--7-----|--5--2--|--5--0--|
A|-----5--7--7--|--5--5--7--|--5--2--|--5--0--|
D|-----5--7-----|--5--------|--5--2--|--5--0--|
                                     ^ Here guitar 1
                                     stops playing at "Singing the Symphonies Of The Overdosed"
                                     Repeat this progression then move to the next one (Or Repeat
                                     This One) at "I only want what I Can't Have"

Guitar 2 plays Intro Lead (With a bluesy tone, or guitar volume knob turned half-down) 
throughout Chorus 2

Octave Chord 2 - Guitar 2 plays this repeated at "Singing the Symphonies Of The Overdosed"
and "I Only Want What I Can't Have":

E|-----
B|-----
G|--9--
D|-----
A|--7--
D|-----

Part Order

Guitar 1
-Intro Rhythm
-Verse Rhythm
-Chorus 1 Rhythm
-Chorus 2 Rhythm
-*Silent for Verse 2*
-Chorus 1 Rhythm
-Chorus 2 Rhythm
-Repeat Verse Rhythm at Refrain
-*Silent for last Chorus 1 until the repeat*
-Chorus 2 Rhythm till end

Guitar 2
-Intro Lead
-Come in with Verse Lead halfway through
-Chorus Rhythm 1 until Octave Chord 1
-Chorus Rhythm 2 until Octave Chord 2
-Verse Lead
-Chorus Rhythm 1 until Octave Chord 1
-Chorus Rhythm 2 until Octave Chord 2
-*Silent for *refrain*
-*Silent for last Chorus 1 until the repeat*
-'Chorus Rhythm 2 until Octave Chord 2' until end            
Submit corrections


        From Now On We Are Enemies lessons Hard to play? Try these video lessons and learn fast From Now On We Are Enemies lessons
        
↑ Back to top | Tablatures and chords for acoustic guitar and electric guitar, ukulele, drums are parodies/interpretations of the original songs. You may use it for private study, scholarship, research or language learning purposes only