» » »

Fall Out Boy - Death Valley Tabs

Artists:  A B C D E F G H I J K L M N O P Q R S T U V W X Y Z # 

Death Valley Tabs

(ver. 1) Click to play this song!
Fall Out Boy
 Rating:
4/5 (5 votes)

 Death Valley lessons Tabs too difficult? Try these video lessons and learn fast
 
                Tuning: Standard (EADGBe)

e|----------14---------------------------------------------------------------|
B|-16-14-16----16-14----14-------------12~-----------------------------------|
G|-------------------16----16-13-11-13---------------------------------------|
D|----------------------------------------------x3---------------------------|
A|---------------------------------------------------------------------------|
E|---------------------------------------------------------------------------|

e|----------14---------------------------------------------------------------|
B|-16-14-16----16-14---------------------------------------------------------|
G|-------------------16~\----------------------------------------------------|
D|---------------------------------------------------------------------------|
A|---------------------------------------------------------------------------|
E|---------------------------------------------------------------------------|

I wanna see your animal side....
(turn gain/volume to low)

e|--------------------------------------------------------------------------------|
B|--------------------------------------------------------------------------------|
G|-------------------------------------6-6-6-X--6-6-6-X---9-9-9-X--9-9-9-X--------|
D|-6-6-X--6-6-6-X--9-9-9-X--9-9-9-X----6-6-6-X--6-6-6-X---9-9-9-X--9-9-9-X--6--x2-|
A|-6-6-X--6-6-6-X--9-9-9-X--9-9-9-X----4-4-4-X--4-4-4-X---7-7-7-X--7-7-7-X--6-----|
E|-4-4-X--4-4-4-X--7-7-7-X--7-7-7-X-----------------------------------------4-----|

I want the guts and glory....
(turn gain/volume back up just before)

e|---------------------------------------------------------------------------|
B|---------------------------------------------------------------------------|
G|---------------------------------------------------------------------------|
D|-------------------6-6-6-6--9-9-9-9--------------------6-6-6---------------|
A|-6-6-6-6--9-9-9-9--4-4-4-4--7-7-7-7--6-6-6-6--9-9-9-9--4-4-4---------------|
E|-4-4-4-4--7-7-7-7--------------------4-4-4-4--7-7-7-7----------------------|
   * * * *  * * * *  * * * *  * * * *  * * * *  * * * *  * * *

then....

e|---------------------------------------------------------------------------|
B|---------------------------------------------------------------------------|
G|---4-6-7~-6-4--------------------------------------------------------------|
D|-6-------------------------------------------------------------------------|
A|---------------------------------------------------------------------------|
E|---------------------------------------------------------------------------|

But we are alive....

e|--------------------------------------------|
B|--------------------------------------------|
G|--------------------------------------------|
D|-66666666-99999999-44444444-22222222--x3----|
A|-66666666-99999999-44444444-22222222--------|
E|-44444444-77777777-22222222-00000000--------|

We are alive..
e|-----------------------------------------------------|
B|-----------------------------------------------------|
G|---------------------------4-6-7~-6-4-6-4~-----------|
D|-66666666-99999999-44444-6-----------------6---------|
A|-66666666-99999999-44444-----------------------------|
E|-44444444-77777777-22222-----------------------------|

e|----------14---------------------------------------14----------------------|
B|-16-14-16----16-14----14-------------12~--16-14-16----16-14----------------|
G|-------------------16----16-13-11-13------------------------16~\-----------|
D|---------------------------------------------------------------------------|
A|---------------------------------------------------------------------------|
E|---------------------------------------------------------------------------|

I wanna see your animal side....
(turn gain/volume to low)

e|--------------------------------------------------------------------------------|
B|--------------------------------------------------------------------------------|
G|-------------------------------------6-6-6-X--6-6-6-X--9-9-9-X--9-9-9-X---------|
D|-6-6-X--6-6-6-X--9-9-9-X--9-9-9-X----6-6-6-X--6-6-6-X--9-9-9-X--9-9-9-X---6--x2-|
A|-6-6-X--6-6-6-X--9-9-9-X--9-9-9-X----4-4-4-X--4-4-4-X--7-7-7-X--7-7-7-X---6-----|
E|-4-4-X--4-4-4-X--7-7-7-X--7-7-7-X-----------------------------------------4-----|

So put the 'D' in dirt now baby....
(turn gain/volume back up just before)

e|---------------------------------------------------------------------------|
B|---------------------------------------------------------------------------|
G|---------------------------------------------------------------------------|
D|-------------------6-6-6-6--9-9-9-9--------------------6-6-6---------------|
A|-6-6-6-6--9-9-9-9--4-4-4-4--7-7-7-7--6-6-6-6--9-9-9-9--4-4-4---------------|
E|-4-4-4-4--7-7-7-7--------------------4-4-4-4--7-7-7-7----------------------|
   * * * *  * * * *  * * * *  * * * *  * * * *  * * * *  * * *

then....

e|---------------------------------------------------------------------------|
B|---------------------------------------------------------------------------|
G|---4-6-7~-6-4--------------------------------------------------------------|
D|-6-------------------------------------------------------------------------|
A|---------------------------------------------------------------------------|
E|---------------------------------------------------------------------------|

But we are alive....

e|--------------------------------------------|
B|--------------------------------------------|
G|--------------------------------------------|
D|-66666666-99999999-44444444-22222222--x3----|
A|-66666666-99999999-44444444-22222222--------|
E|-44444444-77777777-22222222-00000000--------|

We are alive..
e|-----------------------------------------------------|
B|-----------------------------------------------------|
G|---------------------------4-6-7~-6-4-6-4~-----------|
D|-66666666-99999999-44444-6-----------------6---------|
A|-66666666-99999999-44444-----------------------------|
E|-44444444-77777777-22222-----------------------------|

We're gonna die, it's just a matter of time....
(turn gain/volume to low)

e|-----------------------------------------------------------------------------------|
B|-----------------------------------------------------------------------------------|
G|-99999999-1111111111111111-88888888-99999999---------------------------------------|
D|-99999999-1111111111111111-99999999-99999999---x2----------------------------------|
A|-77777777-9-9-9-9-9-9-9-9--99999999-77777777---------------------------------------|
E|-----------------------------------------------------------------------------------|

What I've got will make you feel more alive....

e|---------------------------------------------------------------------------|
B|---------------------------------------------------------------------------|
G|-9-9-9-9-11-11-11-11-8-8-8-8-9-9-9-9-9-9-9-9-11-11-11-11-8888888888888888--|
D|-9-9-9-9-11-11-11-11-8-8-8-8-9-9-9-9-9-9-9-9-11-11-11-11-8888888888888888--|
A|-7-7-7-7-9--9--9--9--6-6-6-6-7-7-7-7-7-7-7-7-9--9--9--9--6666666666666688--|
E|---------------------------------------------------------------------------|

(breakdown)

We're still, we are alive

e|--------------------------------------------|
B|--------------------------------------------|
G|--------------------------------------------|
D|-66666666-99999999-44444444-22222222--x2----|
A|-66666666-99999999-44444444-22222222--------|
E|-44444444-77777777-22222222-00000000--------|

We love a lot so....

e|----------14---------------------------------------14-------------------------------|
B|-16-14-16----16-14----14-------------12~--16-14-16----16-14----14-------------------|
G|-------------------16----16-13-11-13------------------------16----16-13-11-13~------|
D|------------------------------------------------------------------------------------|
A|-------------------------------------------------------------------------------11/--|
E|------------------------------------------------------------------------------------|

We are alive....

e|----------14---------------------------------------14----------------------|
B|-16-14-16----16-14----14-------------12~--16-14-16----16-14----------------|
G|-------------------16----16-13-11-13------------------------16~~~~---------|
D|---------------------------------------------------------------------------|
A|---------------------------------------------------------------------------|
E|---------------------------------------------------------------------------|
            
Submit corrections


        Death Valley lessons Hard to play? Try these video lessons and learn fast Death Valley lessons
        
↑ Back to top | Tablatures and chords for acoustic guitar and electric guitar, ukulele, drums are parodies/interpretations of the original songs. You may use it for private study, scholarship, research or language learning purposes only