Home » F » Fall Out Boy »

Fall Out Boy - Bob Dylan Tabs

Artists:  A B C D E F G H I J K L M N O P Q R S T U V W X Y Z # 

Bob Dylan Tabs

(ver. 1) Click to play this song!
Fall Out Boy
Intro (0:00 -0:10)
 
 
E|-------------------------------------------------------------------------------------------------|
B|-------------------------------------------------------------------------------------------------|
G|-------------------------------------------------------------------------------------------------|
D|--4-2--4-2--4-2--------------------------------2----4-2--4-2--4-2--------------------------------|
A|-----------------4--4-2-4-2-0--0-2-0-2--0-2-4----------------------4-4--4-2--4-2-0---------------|
D|------------------------------------------------------------------------------------4-2--4-2-0---|
 
Pre chorus (0:29 - 0:48)
 
E|--------------------------      ----------------------------------------------|
B|--------------------------      ----------------------------------------------|
G|--------------------------      ----------------------------------------------|
D|--------------------------  x 3 ----------------------------------------------|
A|------------2-2-----------      ------------2-2-------------------------------|
D|--4-4--0-0-------2-2------      --4-4--0-0------------------------------------|
 
Chorus (0:49 - 1:06)
 
 P.M.
E|----------------------------------------------------------------------------------|
B|----------------------------------------------------------------------------------|
G|----------------------------------------------------------------------------------| x2
D|--4-44-4-44-4-44-4-44-0-00-0-00-0-00-0-00-7-77-7-77-7-77-7-77-2-22-2-22-2-22-2-22-|
A|--4-44-4-44-4-44-4-44-0-00-0-00-0-00-0-00-7-77-7-77-7-77-7-77-2-22-2-22-2-22-2-22-|
D|--4-44-4-44-4-44-4-44-0-00-0-00-0-00-0-00-7-77-7-77-7-77-7-77-2-22-2-22-2-22-2-22-|
 
Post-chorus (1:08 - 1:18) Second Post Chorus (2:15 - 2:34)
 
E|--------------------------------------------------------|
B|--------------------------------------------------------|
G|--------------------------------------------------------|   X2
D|--4-2--4-2--4-2--------------------------------2--------|
A|-----------------4--4-2-4-2-0--0-2-0-2--0-2-4-----------|
D|--------------------------------------------------------|
 
second post chorus ending (2:43 - 2:39)
 
E|------------------------------------------------------|
B|------------------------------------------------------|
G|------------------------------------------------------|
D|--4-2--4-2--4-2---------------------------------------|
A|-----------------4--4-2-4-2-0-------------------------|
D|-------------------------------4-2--4-2-0-------------|
            
Submit corrections

↑ Back to top | Tablatures and chords for acoustic guitar and electric guitar, ukulele, drums are parodies/interpretations of the original songs. You may use it for private study, scholarship, research or language learning purposes only