» » »

Falling In Reverse - Fashionably Late Tabs

Artists:  A B C D E F G H I J K L M N O P Q R S T U V W X Y Z # 

Fashionably Late Tabs

(ver. 2) Click to play this song!
Falling In Reverse
 Rating:
4/5 (4 votes)

 Fashionably Late lessons Tabs too difficult? Try these video lessons and learn fast
 
                FALLING IN REVERSE
Drop C



Intro Chorus
--------------------------------------------------|
--------------------------------------------------|
-->77------------77-------------------------------|
-->77------------77-------------75------>0--------|
-->55------------55-------------75------>0--------|
--------------------------------75------>0--------|



Post Chorus/Main Riff - Guitar 1
------------------------------------------------------------------|
------------------------------------------------------------------|
--7~7~7~7~3~3~3~3~5~5~5~5~--------7~7~7~7~3~3~3~3~5~5~5~5~--------|
--7~7~7~7~3~3~3~3~5~5~5~5~3~3~3~3~7~7~7~7~3~3~3~3~5~5~5~5~3~--2~--|
--5~5~5~5~1~1~1~1~3~3~3~3~3~3~3~3~5~5~5~5~1~1~1~1~3~3~3~3~3~--2~--|
--------------------------3~3~3~3~------------------------3~--2~--|
Post Chorus/Main Riff - Guitar 2
------------------------------------------------------------------|
-6-8-10~-6-8-10~-6-8-10-6~-6-8-10~-6-8-13~13~-10-11~--------------|
------------------------------------------------------------------|
------------------------------------------------------------------|
------------------------------------------------------------------|
------------------------------------------------------------------|..
cont.
------------------------------------------------------------------|
-6-8-10~-6-8-10~-6-8-10-6~-11-11~-11-10~-10~~8~-------------------|
------------------------------------------------------------------|
------------------------------------------------------------------|
------------------------------------------------------------------|
------------------------------------------------------------------|



Verse - Guitar 1
------------------------------------------------------------------|
------------------------------------------------------------------|
--77~7----77~7----22~2----22~2----33~3----33~3--------------------|
--xx-x----xx-x----xx-x----xx-x----xx-x----xx-x--------------------|
--55~5----55~5----00~0----00~0----11~1----11~1----xx-x----xx-x----|
--------------------------------------------------33~3----33~3----|..
then
Guitar 1
------------------------------------------------------------------|
------------------------------------------------------------------|
--77~7----77~7----22~2----22~2----33~3----33~3----55~5----55~5----|
--xx-x----xx-x----xx-x----xx-x----xx-x----xx-x----xx-x----xx-x----|
--55~5----55~5----00~0----00~0----11~1----11~1----33~3----33~3----|
------------------------------------------------------------------|
Guitar 2
------------------------------------------------------------------|
--10--10--10--10--5-5-5-5-10--10--10--10--10~~----10~~----10~~----|
----10--10--10--10-7-7-7-7--10--10--10--10----10~~----10~~~~~~~~--|
------------------------------------------------------------------|
------------------------------------------------------------------|
------------------------------------------------------------------|
Guitar 3
------------------------------------------------------------------|
------------------------------------------------------------------|
--1010-10--1010-10---99-9---99-9--1010-10--1010-10---99-9---99-9--|
--x-x--x---x-x--x----xx-x---xx-x--x-x--x---x-x--x----xx-x---xx-x--|
--8-8~-8---8-8~-8----77~7---77~7--8-8~-8---8-8~-8----77~7---77~7--|
------------------------------------------------------------------|



Pre-Chorus 
------------------------------------------------------------------|
------------------------------------------------------------------|
------------------55--55--33-------------55--55-------------------|
-33--------33-----55--55--33--------33---55--55-------------------|
-33--------33-----33--33--11--------33---33--33-------------------|
-33--------33-----------------------33----------------------------|



Chorus                                                          x2
------------------------------------------------------------------|
------------------------------------------------------------------|
--77~7----33~3----55~5--------------------------------------------|
--77~7----33~3----55~5----33~3~3~3~-------------------------------|
--55~5----11~1----33~3----33~3~3~3~-------------------------------|
--------------------------33~3~3~3~-------------------------------|
cont
------------------------------------------------------------------|
------------------------------------------------------------------|
--7~7~7~7~3~3~3~3~5~5~5~5~--------7~7~----3~3~--------------------|
--7~7~7~7~3~3~3~3~5~5~5~5~3~3~3~3~7~7~----3~3~----33--------------|
--5~5~5~5~1~1~1~1~3~3~3~3~3~3~3~3~5~5~----1~1~----33--------------|
--------------------------3~3~3~3~----------------33--------------|


            *NOW REPLAY ALL OF THAT FROM THE POST CHORUS*
*SECOND CHORUS HAS NO RESTS IN CONTINUED PART*


Bridge
------------------------------------------------------------------|
------------------------------------------------------------------|
-10~-----12/14\12/14~--12~----10~--17~--12~/14~-------------------|
-x-------x--x--x--x----x------x----x----x---x---------------------|
-8~------10/12\10/12~--10~----8~---15~~-10~/12~-------------------|
------------------------------------------------------------------|..
cont
------------------------------------------------------------------|
------------------------------------------------------------------|
-10~-----12/14\12/14~--12~----10~--17~---19~---17~---21~----------|
-x-------x--x--x--x----x------x----x------x----x-----x------------|
-8~------10/12\10/12~--10~----8~---15~---17~---15~---19~----------|
------------------------------------------------------------------|


Pre-Chorus 
------------------------------------------------------------------|
------------------------------------------------------------------|
------------------55--55--33-----------------------77-------------|
-33--------33-----55--55--33--------3~~~~----------77-------------|
-33--------33-----33--33--11--------3~~~~----------55-------------|
-33--------33-----------------------3~~~~-------------------------|


            *PLAY CHORUS WITH NO RESTS
                            AND POST CHORUS TWICE)*


Outro (Clean)
------------------------------------|
-----1--------1----------10---------|
----0--------2---------10-----------|
---2--------2--------10-------------|
--3--------0--------8---------------|
------------------------------------|



Done. :) pl0x rate and comment
            
Submit corrections


        Fashionably Late lessons Hard to play? Try these video lessons and learn fast Fashionably Late lessons
        
↑ Back to top | Tablatures and chords for acoustic guitar and electric guitar, ukulele, drums are parodies/interpretations of the original songs. You may use it for private study, scholarship, research or language learning purposes only