» » »

Fake Shark - Real Zombie - Shoreditch Vampire Bass

Artists:  A B C D E F G H I J K L M N O P Q R S T U V W X Y Z # 

Shoreditch Vampire Bass

(ver. 1) Click to play this song!
Fake Shark - Real Zombie
 Rating:
4/5 (4 votes)
                Album:Zebra!Zebra!

The most hard-hitting song on the album. It kicks your balls 
and spits in your face. Rate it and comment.

Intro:1x
G---------------------|
D---------------------|
A---------------------|
E-3(ring)---3-3(ring)-|

Verse:4x-
G----------------------------|
D----------------------------|
A---5-1----5-1----5-1--------|
E-3------3------3------0-2-5-|

Chorus:4x
G-----------------------------------|
D-----------------------------------|
A---------1111-------------1111-----|
E-33333333----0000-22222222----0000-|

Bridge:2x
G----------5555-6666-------------------|
D-5555-8888----------5555-8888---------|
A----------------------------6666-8888-|
E--------------------------------------|

Verse:2x

Outro:8x (pause 2x)  After 4x
G-------------------|------------|
D-------4-6-4-------|------------|
A-4-6-7-------7-6-4-|-4-44--44-4-|
E-------------------|------------|
            
Submit corrections

↑ Back to top | Tablatures and chords for acoustic guitar and electric guitar, ukulele, drums are parodies/interpretations of the original songs. You may use it for private study, scholarship, research or language learning purposes only