Home » F » Faizal Tahir »

Faizal Tahir - Gemuruh Bass

Artists:  A B C D E F G H I J K L M N O P Q R S T U V W X Y Z # 

Gemuruh Bass

(ver. 1) Click to play this song!
Faizal Tahir
-------------------------------------------------------------------------------
                        GEMURUH - FAIZAL TAHIR
-------------------------------------------------------------------------------

Tuning: Drop C#

CHORUS 1:
G |--------|---------------------------------------------|
D |--------|---------------------------------------------|
A |-2-2-2x-|-------------2-22x-2-----------2-22x-2-------|
C#|--------|-15\-3-3x-3---------8-88x-8-8----------------|

G |-----------------------------------------------------|
D |-----------------------------------------------------|
A |--------------4--0~--2~------------------------------|
C#|-7-77x-7-3-33x---------------------------------------|


VERSE 1:
G |--------|------------------------------------------------|
D |--------|------------1h2p1-------------------------------|
A |-2-2-2x-|-----------------4--2-22x-2---------2-22x-2---2-|
C#|--------|-15\-3-33x-3----------------8-88x-8--------7-5--|

G |-----------------------------------------------------|
D |-----------------------------------------------------|
A |----------2/4-2--------------------------------------|
C#|-3-33x-3--------7--8-88x-8--8-88x-10-----------------|


CHORUS 2:
G |--------------------------------------------------------------|
D |--------------------------------------------------------------|
A |----------------2----------2-22x-2---------4-44x-4--84--4-0-2-|
C#|-3-33x-3--3-33x----8-88x-8---------7-77x-7------------11------|


BRIDGE:
G |----------------------------------------------------------------------------------|
D |----------------------------------------------------------------------------------|
A |-------5-------5-------4-------4---42-----------5---5x-------5x---5x-------3---3-3|
C#|-3-33x---3-33x---0-00x---0-00x-------753--3-33x---3----3-33x----3----0-00x----0-0-|


FINAL CHORUS:
G |------------------------------------------------------------------|
D |--------------------------------------2-------2--------2-2--------|
A |-22x-2-22x---------------4--0-0-2-2-----02-2h4-4-----------2-22x--|
C#|-----------7-77x-7-0-00x---------------7---------3-33x-----------7|


G |--------------------------------------------------------|
D |--------------------------------------------------------|
A |-0-00x-0-0--2-22x-2---------0--2-4-44x-4--0-2-4-0-2-----|
C#|--------------------7-77x-7------------------------3x-3x|
            
Submit corrections

↑ Back to top | Tablatures and chords for acoustic guitar and electric guitar, ukulele, drums are parodies/interpretations of the original songs. You may use it for private study, scholarship, research or language learning purposes only