Home » F » Faith Hill »

Faith Hill - When The Lights Go Down Tabs

Artists:  A B C D E F G H I J K L M N O P Q R S T U V W X Y Z # 

When The Lights Go Down Tabs

(ver. 2) Click to play this song!
Faith Hill
 Rating:
4/5 (4 votes)
                Musician: Faith Hill
Part: Intro 
Transcribed 1-15-03

Piano Arrang. For guitar

e--19~-(18-19-18)-(16-18-16)-(14-16-14)---
b---------------------------------------14
g-----------------------------------------
d-----------------------------------------
a-----------------------------------------
E-----------------------------------------
                                        x2



e---------------------------------------------
b-----14-14-----------------------------------
g--15--------------------------13-15----------
d---------------------13-15-16----------------
a------------14-13-16-------------------------
E---------------------------------------------



e---------------------------------------
b---------------------------------------
g-16-(15-16-15)-(13-15-13)-(11-13-11)---
d------------------------------------11-
A---------------------------------------
E---------------------------------------
                                      x2


e---------------------------------------
b---------------------------------------
G---------------------------------------
D---------------------------------------
A---------------------------------------
E---------------------------------------

Last Line to be finished after classes tonight.
Groups in parenthesis for easier reading.
            
Submit corrections

↑ Back to top | Tablatures and chords for acoustic guitar and electric guitar, ukulele, drums are parodies/interpretations of the original songs. You may use it for private study, scholarship, research or language learning purposes only