Home » F » Fairport Convention »

Fairport Convention - Fotheringay Tabs

Artists:  A B C D E F G H I J K L M N O P Q R S T U V W X Y Z # 

Fotheringay Tabs

(ver. 1) Click to play this song!
Fairport Convention
 Rating:
4.2/5 (5 votes)
                (Intro)
That´s my favourite Sandy-Denny-tune, telling Marys, Queen of Scots imprisonment at the 
of Fotheringay. If you´re ever going to visit the little village remember the song and 
atmophere, it´ll go with it, just fantastically.
anyway here it is...

Intro
Am                          Dm          Em                 Am                           
                       Dm          Em
---------0-----------------------------------------------------0---------------------|
---1--3----------3---0p1-0-------0----------------1------1--3---------3---0p1-0------|
------------0----2----------0--------2-----2--4---2--------------0----2---------0----|
---------------0---------------2------------------------------------0----------------|
-0-----------------------------------0-----------------0-----------------------------|
-------------------------------------------------------------------------------------|

               Am              C
-------------------------------------------|
-----0------------0p1-1p3-3s5-5-3-0-3-1----|
--------2------------------------------0---|
-2-----------------------------------------|
--------0------------------------------3---|
-------------------------------------------|

Have fun with it!!!!!
            
Submit corrections

↑ Back to top | Tablatures and chords for acoustic guitar and electric guitar, ukulele, drums are parodies/interpretations of the original songs. You may use it for private study, scholarship, research or language learning purposes only