» » »

Failure - Smoking Umbrellas Tabs

Artists:  A B C D E F G H I J K L M N O P Q R S T U V W X Y Z # 

Smoking Umbrellas Tabs

(ver. 2) Click to play this song!
Failure
 Rating:
3/5 (25 votes)

 Smoking Umbrellas lessons Tabs too difficult? Try these video lessons and learn fast
 
                Intro/Verse                                                                               0:12
Eb|---------------------------------------------|---------------------------------------------|
Bb|--7h8--8--8—-xx—7—xx-7-xx-7-xx-7-xx--7--7—-7-|--7h8--8--8—-xx—7—xx-7-xx-7-xx-7-xx--7--7—-7-|
Gb|--7h7--7--7—-xx—7—xx-7-xx-7-xx-7-xx--7--7--7-|--7h7--7--7—-xx—7—xx-7-xx-7-xx-7-xx--7--7--7-|
Db|---------------------------------------------|---------------------------------------------|
Ab|---------------------------------------------|---------------------------------------------|
Eb|---------------------------------------------|---------------------------------------------|


                                                                                          0:24
eb|---------------------------------------------|---------------------------------------------|
Bb|--7h8--8--8—-xx—7—xx-7-xx-7-xx-7-xx--7--7—-7-|--7h8--8--8—-xx—7—xx-7-xx-7-xx-7-xx--7--7—-7-|
Gb|--7h7--7--7—-xx—7—xx-7-xx-7-xx-7-xx--7--7--7-|--7h7--7--7—-xx—7—xx-7-xx-7-xx-7-xx--7--7--7-|
Db|---------------------------------------------|---------------------------------------------|
Ab|---------------------------------------------|---------------------------------------------|
Eb|---------------------------------------------|---------------------------------------------|

Bass
Gb|---------------------------------------------|---------------------------------------------|
Db|-----------------------------0—0-------------|-----------------------------0—0-------------|
Ab|---1--1--1--1--1--1-1--1-1h3-----3-3-1-1-----|---1--1--1--1--1--1-1--1-1h3-----3-3-1-1-----|
Eb|--3-3---3--2-2---2-2-2-------------------2-2-|--3-3---3--2-2---2-2-2-------------------2-2-|


                                                                                          0:37
eb|---------------------------------------------|---------------------------------------------|
Bb|--7h8--8--8—-xx—7—xx-7-xx-7-xx-7-xx--7--7—-7-|--7h8--8--8—-xx—7—xx-7-xx-7-xx-7-xx--7--7—-7-|
Gb|--7h7--7--7—-xx—7—xx-7-xx-7-xx-7-xx--7--7--7-|--7h7--7--7—-xx—7—xx-7-xx-7-xx-7-xx--7--7--7-|
Db|---------------------------------------------|---------------------------------------------|
Ab|---------------------------------------------|---------------------------------------------|
Eb|---------------------------------------------|---------------------------------------------|


                                                                                          0:50
eb|---------------------------------------------|---------------------------------------------|
Bb|--7h8--8--8—-xx—7—xx-7-xx-7-xx-7-xx--7--7—-7-|--7h8--8--8—-xx—7—xx-7-xx-7-xx-7-xx--7--7—-7-|
Gb|--7h7--7--7—-xx—7—xx-7-xx-7-xx-7-xx--7--7--7-|--7h7--7--7—-xx—7—xx-7-xx-7-xx-7-xx--7--7--7-|
Db|---------------------------------------------|---------------------------------------------|
Ab|---------------------------------------------|---------------------------------------------|
Eb|---------------------------------------------|---------------------------------------------|


1st Guitar                                                                                  1:03  
eb|----------------------------------------------|----------------------------------------------|
Bb|--7--8--8--8—-xx—7—xx-7-xx-7-xx-7-xx--7--7—-7-|--7--8--8--8—-xx—7—xx-7-xx-7-xx-7-xx--7--7—-7-|
Gb|--7--7--7--7—-xx—7—xx-7-xx-7-xx-7-xx--7--7--7-|--7--7--7--7—-xx—7—xx-7-xx-7-xx-7-xx--7--7--7-|
Db|----------------------------------------------|----------------------------------------------|
Ab|----------------------------------------------|----------------------------------------------|
Eb|----------------------------------------------|----------------------------------------------|

2nd Guitar
eb|----------------------------------------------|----------------------------------------------|
Bb|----------------------------------------------|----------------------------------------------|
Gb|----------------------------------------------|----------------------------------------------|
Db|--4--5--5--5—-xx—4—xx-4-xx-4-xx-4-xx--4--4--4-|--4--5--5--5—-xx—4—xx-4-xx-4-xx-4-xx--4--4--4-|
Ab|--5-----5--5—-xx—5—xx-5-xx-5-xx-5-xx--5--5—-5-|--5-----5--5—-xx—5—xx-5-xx-5-xx-5-xx--5--5—-5-|
Eb|----------------------------------------------|----------------------------------------------|


1st Guitar                                                                                  1:16
eb|----------------------------------------------|----------------------------------------------|
Bb|--7--8--8--8—-xx—7—xx-7-xx-7-xx-7-xx--7--7—-7-|--7--8--8--8—-xx—7—xx-7-xx-7-xx-7-xx--7--7—-7-|
Gb|--7--7--7--7—-xx—7—xx-7-xx-7-xx-7-xx--7--7--7-|--7--7--7--7—-xx—7—xx-7-xx-7-xx-7-xx--7--7--7-|
Db|----------------------------------------------|----------------------------------------------|
Ab|----------------------------------------------|----------------------------------------------|
Eb|----------------------------------------------|----------------------------------------------|

2nd Guitar
eb|----------------------------------------------|----------------------------------------------|
Bb|----------------------------------------------|----------------------------------------------|
Gb|----------------------------------------------|----------------------------------------------|
Db|--4--5--5--5—-xx—4—xx-4-xx-4-xx-4-xx--4--4--4-|--4--5--5--5—-xx—4—xx-4-xx-4-xx-4-xx--4--4--4-|
Ab|--5-----5--5—-xx—5—xx-5-xx-5-xx-5-xx--5--5—-5-|--5-----5--5—-xx—5—xx-5-xx-5-xx-5-xx--5--5—-5-|
Eb|----------------------------------------------|----------------------------------------------|


Chorus                                                  1:22
eb|---------------------------------------------------------|
Bb|---------------------------------------------------------|
Gb|--10--10--10--10--------------8--8--8--8--8--7-7--x--5-5-|
Db|--10--10--10--10--9--9--9--9--8--8--8--8—-8--7-7--x--5-5-|
Ab|--8---8---8---8---9--9--9--9--6--6--6--6--6--5-5--x--3-3-|
Eb|--8---8---8---8---7--7--7--7--6--6--6--6--6--5-5--x--3-3-|

                                                     1:29
eb|------------------------------------------------------|
Bb|------------------------------------------------------|
Gb|--10--10--10--10--------------8--8--8--8--8---8--9--9-|
Db|--10--10--10--10--9--9--9--9--8--8--8--8—-8---8--9--9-|
Ab|--8---8---8---8---9--9--9--9--6--6--6--6--6---6--7--7-|
Eb|--8---8---8---8---7--7--7--7--6--6--6--6--6---6--7--7-|

                                                        1:35
eb|---------------------------------------------------------|
Bb|---------------------------------------------------------|
Gb|--10--10--10--10--------------8--8--8--8--8--7-7--x--5-5-|
Db|--10--10--10--10--9--9--9--9--8--8--8--8—-8--7-7--x--5-5-|
Ab|--8---8---8---8---9--9--9--9--6--6--6--6--6--5-5--x--3-3-|
Eb|--8---8---8---8---7--7--7--7--6--6--6--6--6--5-5--x--3-3-|

                                 1:41
eb|----------------------------------|
Bb|----------------------------------|
Gb|--10--10--10--10--------------8~--|
Db|--10--10--10--10--9--9--9--9--8~--|
Ab|--8---8---8---8---9--9--9--9--6~--|
Eb|--8---8---8---8---7--7--7--7--6~--|


Verse
1st Guitar                                                                                  1:54
eb|----------------------------------------------|----------------------------------------------|
Bb|--7--8--8--8—-xx—7—xx-7-xx-7-xx-7-xx--7--7—-7-|--7--8--8--8—-xx—7—xx-7-xx-7-xx-7-xx--7--7—-7-|
Gb|--7--7--7--7—-xx—7—xx-7-xx-7-xx-7-xx--7--7--7-|--7--7--7--7—-xx—7—xx-7-xx-7-xx-7-xx--7--7--7-|
Db|----------------------------------------------|----------------------------------------------|
Ab|----------------------------------------------|----------------------------------------------|
Eb|----------------------------------------------|----------------------------------------------|

2nd Guitar
eb|----------------------------------------------|----------------------------------------------|
Bb|----------------------------------------------|----------------------------------------------|
Gb|----------------------------------------------|----------------------------------------------|
Db|--4--5--5--5—-xx—4—xx-4-xx-4-xx-4-xx--4--4--4-|--4--5--5--5—-xx—4—xx-4-xx-4-xx-4-xx--4--4--4-|
Ab|--5-----5--5—-xx—5—xx-5-xx-5-xx-5-xx--5--5—-5-|--5-----5--5—-xx—5—xx-5-xx-5-xx-5-xx--5--5—-5-|
Eb|----------------------------------------------|----------------------------------------------|


1st Guitar                                                                                  2:07
eb|----------------------------------------------|----------------------------------------------|
Bb|--7--8--8--8—-xx—7—xx-7-xx-7-xx-7-xx--7--7—-7-|--7--8--8--8—-xx—7—xx-7-xx-7-xx-7-xx--7--7—-7-|
Gb|--7--7--7--7—-xx—7—xx-7-xx-7-xx-7-xx--7--7--7-|--7--7--7--7—-xx—7—xx-7-xx-7-xx-7-xx--7--7--7-|
Db|----------------------------------------------|----------------------------------------------|
Ab|----------------------------------------------|----------------------------------------------|
Eb|----------------------------------------------|----------------------------------------------|

2nd Guitar
eb|----------------------------------------------|----------------------------------------------|
Bb|----------------------------------------------|----------------------------------------------|
Gb|----------------------------------------------|----------------------------------------------|
Db|--4--5--5--5—-xx—4—xx-4-xx-4-xx-4-xx--4--4--4-|--4--5--5--5—-xx—4—xx-4-xx-4-xx-4-xx--4--4--4-|
Ab|--5-----5--5—-xx—5—xx-5-xx-5-xx-5-xx--5--5—-5-|--5-----5--5—-xx—5—xx-5-xx-5-xx-5-xx--5--5—-5-|
Eb|----------------------------------------------|----------------------------------------------|


Chorus                                                  2:13
eb|---------------------------------------------------------|
Bb|---------------------------------------------------------|
Gb|--10--10--10--10--------------8--8--8--8--8--7-7--x--5-5-|
Db|--10--10--10--10--9--9--9--9--8--8--8--8—-8--7-7--x--5-5-|
Ab|--8---8---8---8---9--9--9--9--6--6--6--6--6--5-5--x--3-3-|
Eb|--8---8---8---8---7--7--7--7--6--6--6--6--6--5-5--x--3-3-|

                                                     2:20
eb|------------------------------------------------------|
Bb|------------------------------------------------------|
Gb|--10--10--10--10--------------8--8--8--8--8---8--9--9-|
Db|--10--10--10--10--9--9--9--9--8--8--8--8—-8---8--9--9-|
Ab|--8---8---8---8---9--9--9--9--6--6--6--6--6---6--7--7-|
Eb|--8---8---8---8---7--7--7--7--6--6--6--6--6---6--7--7-|

                                                        2:26
eb|---------------------------------------------------------|
Bb|---------------------------------------------------------|
Gb|--10--10--10--10--------------8--8--8--8--8--7-7--x--5-5-|
Db|--10--10--10--10--9--9--9--9--8--8--8--8—-8--7-7--x--5-5-|
Ab|--8---8---8---8---9--9--9--9--6--6--6--6--6--5-5--x--3-3-|
Eb|--8---8---8---8---7--7--7--7--6--6--6--6--6--5-5--x--3-3-|

                                                     2:33
Eb|------------------------------------------------------|
Bb|------------------------------------------------------|
Gb|--10--10--10--10--------------8--8--8--8--8---8--9--9-|
Db|--10--10--10--10--9--9--9--9--8--8--8--8—-8---8--9--9-|
Ab|--8---8---8---8---9--9--9--9--6--6--6--6--6---6--7--7-|
Eb|--8---8---8---8---7--7--7--7--6--6--6--6--6---6--7--7-|

Bridge
1st Guitar                                                          2:39
eb|-------12---------------12---------------12---------------12---------|
Bb|-----13--13-----------13--13-----------13--13-----------13--13-------|
Gb|---14------14--14---14------14--14---14------14--14---14------14--14-|
Db|-15----------15---15----------15---15----------15---15----------15---|
Ab|---------------------------------------------------------------------|
Eb|---------------------------------------------------------------------|

2nd Guitar
eb|--13--12----------13--12---------------------------------------------|
Bb|----------13--10----------13--10--------10---------------10----------|
Gb|------------------------------------12------10-------12------10------|
Db|------------------------------------------------12---------------12--|
Ab|---------------------------------------------------------------------|
Eb|---------------------------------------------------------------------|


1st Guitar                                                         2:45
eb|-------12---------------12-----------12----12----12----12----12-----|
Bb|-----13--13-----------13--13-----------13----13----13----13----13---|
Gb|---14------14--14---14------14--14-14----14----14----14----14----14-|
Db|-15----------15---15----------15------------------------------------|
Ab|--------------------------------------------------------------------|
Eb|--------------------------------------------------------------------|

2nd Guitar
eb|--13--12----------13--12--------------------------------------------|
Bb|----------13--10----------13--10--------10---------------10---------|
Gb|------------------------------------12------10-------12------10-----|
Db|------------------------------------------------12---------------12-|
Ab|--------------------------------------------------------------------|
Eb|--------------------------------------------------------------------|


1st Guitar                                                          2:52
Eb|-------12---------------12---------------12---------------12---------|
Bb|-----13--13-----------13--13-----------13--13-----------13--13-------|
Gb|---14------14--14---14------14--14---14------14--14---14------14--14-|
Db|-15----------15---15----------15---15----------15---15----------15---|
Ab|---------------------------------------------------------------------|
Eb|---------------------------------------------------------------------|

2nd Guitar
Eb|--13--12----------13--12---------------------------------------------|
Bb|----------13--10----------13--10--------10---------------10----------|
Gb|------------------------------------12------10-------12------10------|
Db|------------------------------------------------12---------------12--|
Ab|---------------------------------------------------------------------|
Eb|---------------------------------------------------------------------|

3rd Guitar
eb|---------------------------------------------------------------------|
Bb|---------------------------------------------------------------------|
Gb|-10--------------------------------8---------------------------------|
Db|-10--------------------------------8---------------------------------|
Ab|-8---------------------------------6---------------------------------|
Eb|-8---------------------------------6---------------------------------|


1st Guitar                                                         2:58
eb|-------12---------------12-----------12----12----12----12----12-----|
Bb|-----13--13-----------13--13-----------13----13----13----13----13---|
Gb|---14------14--14---14------14--14-14----14----14----14----14----14-|
Db|-15----------15---15----------15------------------------------------|
Ab|--------------------------------------------------------------------|
Eb|--------------------------------------------------------------------|

2nd Guitar
eb|--13--12----------13--12--------------------------------------------|
Bb|----------13--10----------13--10--------10---------------10---------|
Gb|------------------------------------12------10-------12------10-----|
Db|------------------------------------------------12---------------12-|
Ab|--------------------------------------------------------------------|
Eb|--------------------------------------------------------------------|

3rd Guitar
eb|--------------------------------------------------------------------|
Bb|--------------------------------------------------------------------|
Gb|-10--------------------------------8--8--8--8--8--8--8--8--8--9-9-9-|
Db|-10--------------------------------8--8--8--8--8--8--8--8--8--9-9-9-|
Ab|-8---------------------------------6--6--6--6--6--6--6--6--6--7-7-7-|
Eb|-8---------------------------------6--6--6--6--6--6--6--6--6--7-7-7-|


Chorus
1st Guitar                                              3:04
eb|---------------------------------------------------------|
Bb|---------------------------------------------------------|
Gb|--10--10--10--10--------------8--8--8--8--8--7-7--x--5-5-|
Db|--10--10--10--10--9--9--9--9--8--8--8--8—-8--7-7--x--5-5-|
Ab|--8---8---8---8---9--9--9--9--6--6--6--6--6--5-5--x--3-3-|
Eb|--8---8---8---8---7--7--7--7--6--6--6--6--6--5-5--x--3-3-|

2nd Guitar
eb|--13--13--13--13--13--13--13--13--13--13--13--13--13--13-|
Bb|---------------------------------------------------------|
Gb|--10--10--10--10--10--10--10--10--10--10--10--10--10--10-|
Db|---------------------------------------------------------|
Ab|---------------------------------------------------------|
Eb|---------------------------------------------------------|

1st Guitar                                           3:11
eb|------------------------------------------------------|
Bb|------------------------------------------------------|
Gb|--10--10--10--10--------------8--8--8--8--8---8--9--9-|
Db|--10--10--10--10--9--9--9--9--8--8--8--8—-8---8--9--9-|
Ab|--8---8---8---8---9--9--9--9--6--6--6--6--6---6--7--7-|
Eb|--8---8---8---8---7--7--7--7--6--6--6--6--6---6--7--7-|

1st Guitar                                              3:17
eb|---------------------------------------------------------|
Bb|---------------------------------------------------------|
Gb|--10--10--10--10--------------8--8--8--8--8--7-7--x--5-5-|
Db|--10--10--10--10--9--9--9--9--8--8--8--8—-8--7-7--x--5-5-|
Ab|--8---8---8---8---9--9--9--9--6--6--6--6--6--5-5--x--3-3-|
Eb|--8---8---8---8---7--7--7--7--6--6--6--6--6--5-5--x--3-3-|

2nd Guitar
eb|--13--13--13--13--13--13--13--13--13--13--13--13--13--13-|
Bb|---------------------------------------------------------|
Gb|--10--10--10--10--10--10--10--10--10--10--10--10--10--10-|
Db|---------------------------------------------------------|
Ab|---------------------------------------------------------|
Eb|---------------------------------------------------------|

1st Guitar                       3:24
eb|----------------------------------|
Bb|----------------------------------|
Gb|--10--10--10--10--------------8~--|
Db|--10--10--10--10--9--9--9--9--8~--|
Ab|--8---8---8---8---9--9--9--9--6~--|
Eb|--8---8---8---8---7--7--7--7--6~--|

2nd Guitar
eb|--13--13--13--13--13--13--13--11~-|
Bb|----------------------------------|
Gb|--10--10--10--10--10--10--10--8~--|
Db|----------------------------------|
Ab|----------------------------------|
Eb|----------------------------------|

Outro                                                                                        3:48
eb|----------------------------------------------------------------------------------------------|
Bb|----------------------------------------------------------------------------------------------|
Gb|--------------------<5>-<5>---------------------<5>-------------------------------------------|
Db|-------------------------------<5>-----------<5>----------------------------------------------|
Ab|----------------------------------------------------------------------------------------------|
Eb|----------------------------------------------------------------------------------------------|

Bass
Gb|------------------|----------------------------------------------------|----------------------|
Db|------------------|----------------------------------------------------|-------------------3~-|
Ab|---1--1-----1--1~-|---1--1--1---1--1---4-4-4-4-4\3---1-1--1--1---1--1~-|---1--1--1---1--1-----|
Eb|--3-3---3--2-2----|--3-3---3---2-2--------------------3-3---3---2-2----|--3-3---3---2-2-------|            
Submit corrections


        Smoking Umbrellas lessons Hard to play? Try these video lessons and learn fast Smoking Umbrellas lessons
        
↑ Back to top | Tablatures and chords for acoustic guitar and electric guitar, ukulele, drums are parodies/interpretations of the original songs. You may use it for private study, scholarship, research or language learning purposes only