» » »

Failure - Pitiful Tabs

Artists:  A B C D E F G H I J K L M N O P Q R S T U V W X Y Z # 

Pitiful Tabs

(ver. 2) Click to play this song!
Failure
 Rating:
4.4/5 (5 votes)

 Pitiful lessons Tabs too difficult? Try these video lessons and learn fast
 
                repeat 4 times for the intro (this also the chorus)
e|---------------------------------------------------------------------------|
B|---------------------------------------------------------------------------|
G|---7-7-7-7--9-9-9-9--5-5-5-5--10-10-10-10----------------------------------|
D|---7-7-7-7--9-9-9-9--5-5-5-5--10-10-10-10----------------------------------|
A|---5-5-5-5--7-7-7-7--3-3-3-3---8--8--8--8----------------------------------|
E|---5-5-5-5--7-7-7-7--3-3-3-3---8--8--8--8----------------------------------|

verse
palm muted
repeat 
e|-------------------------------------------------------------------------------|
B|-------------------------------------------------------------------------------|
G|---5-5-5-5-5-5-5-5--4-4-4-4-4-4-4-4--7-7-7-7-7-7-7-7---9--9--9--9--9--9--9--9--|
D|---7-7-7-7-7-7-7-7--5-5-5-5-5-5-5-5--9-9-9-9-9-9-9-9--10-10-10-10-10-10-10-10--|
A|-------------------------------------------------------------------------------|
E|-------------------------------------------------------------------------------|            
Submit corrections


        Pitiful lessons Hard to play? Try these video lessons and learn fast Pitiful lessons
        
↑ Back to top | Tablatures and chords for acoustic guitar and electric guitar, ukulele, drums are parodies/interpretations of the original songs. You may use it for private study, scholarship, research or language learning purposes only