» » »

Failure - Dirty Blue Balloons Tabs

Artists:  A B C D E F G H I J K L M N O P Q R S T U V W X Y Z # 

Dirty Blue Balloons Tabs

(ver. 2) Click to play this song!
Failure
 Rating:
4.4/5 (5 votes)

 Dirty Blue Balloons lessons Tabs too difficult? Try these video lessons and learn fast
 
                e|-----------------------13--14--15--14--19~---15-14h15-13-----------------15-----15--14--14---|
B|-------15----11--10--------------------------------------15-15-15-13--13-13---13--13--13-----|
G|--/11----------------------------------------------------------------------------------------|
D|---------------------------------------------------------------------------------------------|
A|---------------------------------------------------------------------------------------------|
E|---------------------------------------------------------------------------------------------|

e|------------------15----15--15--15-----------------------------------------|
B|--15-15-15-13--13-13--13--13--13-------------------------------------------|
G|---------------------------------------------------------------------------|
D|---------------------------------------------------------------------------|
A|---------------------------------------------------------------------------|
E|---------------------------------------------------------------------------|

e|--------------------------------------------12--17--17--17---------------------------16--16--16--------|
B|-------15----11--10b11---------------15---15--15--15--15---15-15-15-13-13-13-15-15-15--15--15----------|
G|--/11-----------------------------12-------------------------------------------------------------------|
D|---------------------------12--12----------------------------------------------------------------------|
A|-------------------------------------------------------------------------------------------------------|
E|-------------------------------------------------------------------------------------------------------|

e|---------------------------16--16--16--------------------------------------|
B|-15-15-15-13-13-13-15-15-15--15--15----------------------------------------|
G|---------------------------------------------------------------------------|
D|---------------------------------------------------------------------------|
A|---------------------------------------------------------------------------|
E|---------------------------------------------------------------------------|            
Submit corrections


        Dirty Blue Balloons lessons Hard to play? Try these video lessons and learn fast Dirty Blue Balloons lessons
        
↑ Back to top | Tablatures and chords for acoustic guitar and electric guitar, ukulele, drums are parodies/interpretations of the original songs. You may use it for private study, scholarship, research or language learning purposes only