Home » F » Faction »

Faction - Not Mine Bass

Artists:  A B C D E F G H I J K L M N O P Q R S T U V W X Y Z # 

Not Mine Bass

(ver. 1) Click to play this song!
Faction
[Intro] 0:09
G|--------------|
D|--------------| x2
A|--------------|
E|--5--5--------|
 
[Verse]
G|-------------------------------------|
D|-------------------------------------| x4
A|-------------------------------------|
E|--5-5-6-5-5-5-6-5-5-5-6-5-8-5-6-5----|
 
[Chorus]
G|----------------------------------|
D|----------------------------------|
A|----------------------------------| x4
E|--0-0-0-0-0-0-0-0-1-2-3-6---3-6---|
 
[Verse]
G|-------------------------------------|
D|-------------------------------------| x4
A|-------------------------------------|
E|--5-5-6-5-5-5-6-5-5-5-6-5-8-5-6-5----|
 
[Chorus]
G|----------------------------------|
D|----------------------------------|
A|----------------------------------| x4
E|--0-0-0-0-0-0-0-0-1-2-3-6---3-6---|
 
[Intro Again]
G|---------------------------------|----------------------------------------------------|
D|---------------------------------|----------------------------------------------------|
A|---------------------------------|----------------------------------------------------|
E|--5--5~~~~~~~~~~~~~~~~5--5-------|--5--5~~~~~~~~~~~~~~~~5--5~~~~~~~~~~5-5-5-5-5-5-5-5-|
 
[Verse]
G|-------------------------------------|
D|-------------------------------------| x4
A|-------------------------------------|
E|--5-5-6-5-5-5-6-5-5-5-6-5-8-5-6-5----|
 
[Chorus]
G|----------------------------------|
D|----------------------------------|
A|----------------------------------| x4
E|--0-0-0-0-0-0-0-0-1-2-3-6---3-6---|
 
[Bridge]
G|----------------------------------|
D|----------------------------------|
A|-0-0-0-0-0-0-0-0-0-1-3-6---3-6----| x2
E|----------------------------------|
 
G|----------------------------------|
D|----------------------------------|
A|----------------------------------|
E|--0-0-0-0-0-0-0-0-1-2-3-6---3-6---|
 
[Verse]
G|-------------------------------------|
D|-------------------------------------| x4 (4th time it cuts at the C note for some reason)
A|-------------------------------------|
E|--5-5-6-5-5-5-6-5-5-5-6-5-8-5-6-5----|
 
            
Submit corrections

↑ Back to top | Tablatures and chords for acoustic guitar and electric guitar, ukulele, drums are parodies/interpretations of the original songs. You may use it for private study, scholarship, research or language learning purposes only