» » »

Extol - 26 Miles To Marathon Tabs

Artists:  A B C D E F G H I J K L M N O P Q R S T U V W X Y Z # 

26 Miles To Marathon Tabs

(ver. 1) Click to play this song!
Extol
 Rating:
3.7/5 (6 votes)
                ---------------------------------------------------------------------------
                       "26 Miles To Marathon" - Extol
---------------------------------------------------------------------------

Tuning: Standard D
Note: Tune your 6th string to D, then tune the rest of the strings the 
normal way. Extol does not tune to dropped D as noted on other tabs.    

I was just way too lazy to tab all the palm mutes, hammers, pulls and 
slides. The parts were challenging enough to figure out. If you can get 
through the song, you are good enough to know how to stylize the notes
and chords to make it sound like the original. Crack your knuckles and get 
to work...Good Luck!

Riff A - Left Guitar - 2x
e|------------------------------------------------------------------------|
B|------------------------------------------------------------------------|
G|-------------0-------------------4-4-4-5-5-5-7-7-7-7--------------------|
D|-------3---4------2----------3---4-4-4-5-5-5-7-7-7-7-6-6-6-6-3-3-3-3-3-3|
A|-5----------------2----5---------2-2-2-3-3-3-5-5-5-5-6-6-6-6-3-3-3-3-3-3|
E|---6-4---2------1-0------6-4---2---------------------4-4-4-4-1-1-1-1-1-1|

Riff A - Right Guitar - 2x
e|---------------------0-----------7-7-7-7-7-7-7-7-7-7-6-6-6-6------------|
B|-------------------0-------------4-4-4-5-5-5-7-7-7-7-4-4-4-4-8-8-8-8-8-8|
G|-------------0---3---------------4-4-4-5-5-5-7-7-7-7-5-5-5-5-8-8-8-8-8-8|
D|-8---------4-----------8-------------------------------------6-6-6-6-6-6|
A|---7-6-5-4---------------7-6-5-4----------------------------------------|
E|------------------------------------------------------------------------|

Riff B - 2x
e|------------------------------------------------------------------------|
B|------------------------------------------------------------------------|
G|------------------------------------------------------------------------|
D|-----------------------5-5-----9-9-----------------------5-5-----9-9----|
A|-----7-------2-2-2-3-3-----7-7---------7-------2-2-2-3-3-----7-7--------|
E|-5-5---5-3-3-----------------------5-5---5-3-3--------------------------|

e|--------------------------------------------------------|
B|--------------------------------------------------------|
G|--------------------------------------------------------|
D|-----------------------5-5-----9-9---------3---------7--|
A|-----7-------2-2-2-3-3-----7-7---------3-3-------8-8----|
E|-5-5---5-3-3-----------------------1-1-------6-6--------|

Riff C - 4x
e|------------------------------------------------------------------------|
B|---------------------------------------------------3---5----------------|
G|---------4---4-------------6---6--------5-5-5--1-3---3------------4---4-|
D|-------1---1-------------5---5----------------------------------1---1---|
A|-0-0-0----------0-0-0--0----------3-3-3-------------------0-0-0---------|
E|------------------------------------------------------------------------|

e|----------------------------------------------------|
B|------------------------------------3---5-----------|
G|------------6---6--------5-5-5--1-3---3-------------|
D|----------5---5---------------------------0-0-0--0--|
A|-0-0-0--0----------3-3-3----------------------------|
E|----------------------------------------------------|

Riff D
e|--------------------------------------------------------|
B|--------------------------------------------------------|
G|--------------------------------------------------------|
D|-----------------------------------------------4----3---|
A|-5-5-5--6--5--4-4-3----------------------------4----3---|
E|----------------------8-7--7-7-7-6-6-6-5-5-5---2----1---|

Riff E
e|------------------------------------------------------------------|
B|------------------------------------------------------------------|
G|-------7-------------5-6-5----------------------------------------|
D|----------------------------------------------------4-3-5-3-4-5---|
A|-5-5-5----6-5--4-4-3--------------------------------4-----3-------|
E|---------------------------8-7--7-7-7-6-6-6-5-5-5---2-----1-------|

Riff E - second guitar
e|----------------------------------------------------------------------|
B|----------------------------------------------------------------------|
G|-------10------------8-9-8--------------------------------------------|
D|---------------------------------------------------------4-3-5-3-4-5--|
A|-8-8-8----9-8--7-7-6-------------------------------------4-----3------|
E|----------------------------11-10--10-10-10-9-9-9-8-8-8--2-----1------|

Repeat Riff A - 2x
Repeat Riff C (cuts short after triplet c note octaves)

Riff F (guitars split into octaves on one part - see below)
e|------------------------------------------------------------------------|
B|------------------------------------------------------------------------|
G|------------------------------------------------------------------------|
D|------------------------------------------------------------------------|
A|-1-1-1-1-1-1-1-1-1-1-1-1-1-1-1-1-1-1-3-3-3-3-3-3-3-3-3-3-3-3-3-3-3-3-3-3|
E|------------------------------------------------------------------------|

e|------------------------------------------------------------------------|
B|------------------------------------------------------------------------|
G|------------------------------------------------------------------------|
D|-5-5-5-5-5-5-5-5-5-5-5-5-5-5-5-5-5-5------------------------------------|
A|-------------------------------------0-0-0-0-0-0-0-0-0-0-0-0-0-0-0-0-0-0|
E|-3-3-3-3-3-3-3-3-3-3-3-3-3-3-3-3-3-3------------------------------------|

Riff G overlay                                     Riff G chords
e|---------0-----------0-----------0----------0--|-----------------|
B|-----3-----------3-----------3----------3------|-----------------|
G|---3---3-------3---3-------3---3------3---3----|-3---5-------2---|
D|-3-----------5-----------0----------2----------|-3---5---5---2---|
A|-----------------------------------------------|-1---3---5---0---|
E|-----------------------------------------------|---------3-------|

Repeat Riff E, then revert back to Riff D
End on last chords of Riff D


| /  slide up
| \  slide down
| h  hammer-on
| p  pull-off
| ~  vibrato
| +  harmonic
| x  Mute note
============================================================================
            
Submit corrections

↑ Back to top | Tablatures and chords for acoustic guitar and electric guitar, ukulele, drums are parodies/interpretations of the original songs. You may use it for private study, scholarship, research or language learning purposes only