Home » E » Exodus »

Exodus - Shovel Headed Kill Machine Tabs

Artists:  A B C D E F G H I J K L M N O P Q R S T U V W X Y Z # 

Shovel Headed Kill Machine Tabs

(ver. 2) Click to play this song!
Exodus
 Rating:
3/5 (25 votes)
                Tuning: DGCFAD

INTRO:

e|---------------------------------------------------------------------------|
B|---------------------------------------------------------------------------|
G|---------------------------------------------------------------------------|
D|------4-------------4------------4------------4-3-------------4------------|
A|3-----2-3---4-3-----2-3--4-3-----2-3--4-3-----2-1-----4-3-----2-3----------|
E|1-0-0---1---2-1-0-0---1--2-1-0-0---1--2-1-0-0-----0-0-2-1-0-0---1----------|


VERSE:

e|---------------------------------------------------------------------------|
B|---------------------------------------------------------------------------|
G|---------------------------------------------------------------------------|
D|------------------------4-3------------------------------------------------|
A|4-3-----4-3-----4-3-----2-1-----4-3----------------------------------------|
E|2-1-0-0-2-1-0-0-2-1-0-0-----0-0-2-1-0-0------------------------------------|



Next Bit:

e|---------------------------------------------------------------------------|
B|---------------------------------------------------------------------------|
G|---------------------------------------------------------------------------|
D|----------------3----------------------------------------------------------|
A|4---3---2---3---1---4------------------------------------------------------|
E|2---1---0---1-------2------------------------------------------------------|


Next:  Kneel and die before the SHOVEL HEADED KILL MACHINE

e|---------------------------------------------------------------------------|
B|---------------------------------------------------------------------------|
G|---------------------------------------------------------------------------|
D|4-3-2----------------------------------------------------------------------|
A|2-1-0-6-5-4-3--3333-3------------------------------------------------------|
E|------4-3-2-1--1111-1------------------------------------------------------|


Bridge

e|---------------------------------------------------------------------------|
B|---------------------------------------------------------------------------|
G|---------------------------------------------------------------------------|
D|---------------------------------------------------------------------------|
A|3-----4-3-----4-3-----4-3--------------------------------------------------|
E|1-0-0-2-1-0-0-2-1-0-0-2-1--------------------------------------------------|            
Submit corrections

↑ Back to top | Tablatures and chords for acoustic guitar and electric guitar, ukulele, drums are parodies/interpretations of the original songs. You may use it for private study, scholarship, research or language learning purposes only