Home » E » Exodus »

Exodus - Exodus Tabs

Artists:  A B C D E F G H I J K L M N O P Q R S T U V W X Y Z # 

Exodus Tabs

(ver. 2) Click to play this song!
Exodus
 Rating:
4.1/5 (23 votes)
                Fig 1 x 1
|-|----------------------------------------------------------------|-|
|-|----------------------------------------------------------------|-|
|o|---h--h------------h---------------h--h-------------------------|o|
|o|4-24-24-----5-2-4-24--------2-3-4-24-24-----5-2-4-------3-------|o|
|-|4-24-24-----5-2-4-24--------2-3-4-24-24-----5-2-4-------1---2-3-|-|
|-|------------------------------------------------------------0-1-|-|
                                                   *

Fig 2 x 1 into verse
|-|----------------------------------------------------------------|-|
|-|----------------------------------------------------------------|-|
|o|----------------------------------------------------------------|-|
|o|--------------------------------------------------------3-------|-|
|-|-ph-4------5--2--ph--------2--3--ph-4------5--2--ph-----1---2-3-|-|
|-|202-2-222223--0-202-22222220--1-202-2-222223--0-202-222-----0-1-|-|
         .....         .......           .....         ...

|-|----------------------------------------------------------------|-|
|-|----------------------------------------------------------------|-|
|-|----------------------------------------------------------------|o|
|-|--------------------------------------------------------3-------|o|
|-|-ph-4------5--2--ph--------2--3--ph-4------5--2-4-------1---2-3-|-|
|-|202-2-222223--0-202-22222220--1-202-2-222223--0-2-----------0-1-|-|
         .....         .......           .....     *

Fig 3 x 4 verse
|-|----------------------------------------------------------------|-|
|-|----------------------------------------------------------------|-|
|o|----------------------------------------------------------------|o|
|o|----------------------------------------------------------------|o|
|-|-----------5--2------------2--3------------5--2---------8---2-3-|-|
|-|2-2222222223--0-2-2222222220--1-2-2222222223--0-2-2222226---0-1-|-|
   . .........     . .........     . .........     . ......

Fig 4 x 1 chorus
|-|----------------------------------------------------------------|-|
|-|----------------------------------------------------------------|-|
|o|----------------------------------------------------------------|-|
|o|5-------------4-5-----------------------------------------------|-|
|-|3-------------2-3--------5--4--2--------------------------------|-|
|-|-------------------------3--2--0-2-2222222222222222222223--2--0-|-|
                                    . .....................

|-|----------------------------------------------------------------|-|
|-|----------------------------------------------------------------|-|
|-|------------------------7--6--4-----------------6---6-----------|-|
|-|5-------------4-5-------5--4--2-4-444444444444444-444-445--4----|-|
|-|3-------------2-3---------------------------------------------7-|-|
|-|----------------------------------------------------------------|-|
                                   . ..............  ..  ..

|-|----------------------------------------------------------------|-|
|-|----------------------------------------------------------------|-|
|-|----------------------------------------------------------------|-|
|-|5-------------4-5-----------------------------------------------|-|
|-|3-------------2-3--------5--4--2--------------------------------|-|
|-|-------------------------3--2--0-2-2222222222222222222223--2--0-|-|
                                    . .....................

|-|----------------------------------------------------------------|-|
|-|----------------------------------------------------------------|-|
|-|----------------------------------------------------------------|o|
|-|5-------------4-5-------9-------7-------------------------------|o|
|-|3-------------2-3-------7-------5---------------8--7----7--5----|-|
|-|----------------------------------------------0-6--5--0-5--3--0-|-|
                                                 .       .       .

Fig 2 x 1 into verse
|-|----------------------------------------------------------------|-|
|-|----------------------------------------------------------------|-|
|o|----------------------------------------------------------------|-|
|o|--------------------------------------------------------3-------|-|
|-|-ph-4------5--2--ph--------2--3--ph-4------5--2--ph-----1---2-3-|-|
|-|202-2-222223--0-202-22222220--1-202-2-222223--0-202-222-----0-1-|-|
         .....         .......           .....         ...

|-|----------------------------------------------------------------|-|
|-|----------------------------------------------------------------|-|
|-|----------------------------------------------------------------|o|
|-|--------------------------------------------------------3-------|o|
|-|-ph-4------5--2--ph--------2--3--ph-4------5--2-4-------1---2-3-|-|
|-|202-2-222223--0-202-22222220--1-202-2-222223--0-2-----------0-1-|-|
         .....         .......           .....     *

Fig 3 x 4 verse
|-|----------------------------------------------------------------|-|
|-|----------------------------------------------------------------|-|
|o|----------------------------------------------------------------|o|
|o|----------------------------------------------------------------|o|
|-|-----------5--2------------2--3------------5--2---------8---2-3-|-|
|-|2-2222222223--0-2-2222222220--1-2-2222222223--0-2-2222226---0-1-|-|
   . .........     . .........     . .........     . ......

Fig 4 x 1 chorus
|-|----------------------------------------------------------------|-|
|-|----------------------------------------------------------------|-|
|o|----------------------------------------------------------------|-|
|o|5-------------4-5-----------------------------------------------|-|
|-|3-------------2-3--------5--4--2--------------------------------|-|
|-|-------------------------3--2--0-2-2222222222222222222223--2--0-|-|
                                    . .....................

|-|----------------------------------------------------------------|-|
|-|----------------------------------------------------------------|-|
|-|------------------------7--6--4-----------------6---6-----------|-|
|-|5-------------4-5-------5--4--2-4-444444444444444-444-445--4----|-|
|-|3-------------2-3---------------------------------------------7-|-|
|-|----------------------------------------------------------------|-|
                                   . ..............  ..  ..

|-|----------------------------------------------------------------|-|
|-|----------------------------------------------------------------|-|
|-|----------------------------------------------------------------|-|
|-|5-------------4-5-----------------------------------------------|-|
|-|3-------------2-3--------5--4--2--------------------------------|-|
|-|-------------------------3--2--0-2-2222222222222222222223--2--0-|-|
                                    . .....................

|-|----------------------------------------------------------------|-|
|-|----------------------------------------------------------------|-|
|-|----------------------------------------------------------------|o|
|-|5-------------4-5-------9-------7-------------------------------|o|
|-|3-------------2-3-------7-------5---------------8--7----7--5----|-|
|-|----------------------------------------------0-6--5--0-5--3--0-|-|
                                                 .       .       .

Fig 2 x 1 into verse
|-|----------------------------------------------------------------|-|
|-|----------------------------------------------------------------|-|
|o|----------------------------------------------------------------|-|
|o|--------------------------------------------------------3-------|-|
|-|-ph-4------5--2--ph--------2--3--ph-4------5--2--ph-----1---2-3-|-|
|-|202-2-222223--0-202-22222220--1-202-2-222223--0-202-222-----0-1-|-|
         .....         .......           .....         ...

|-|----------------------------------------------------------------|-|
|-|----------------------------------------------------------------|-|
|-|----------------------------------------------------------------|o|
|-|--------------------------------------------------------3-------|o|
|-|-ph-4------5--2--ph--------2--3--ph-4------5--2-4-------1---2-3-|-|
|-|202-2-222223--0-202-22222220--1-202-2-222223--0-2-----------0-1-|-|
         .....         .......           .....     *

Fig 3a x 4 under Gary's solo
|-|----------------------------------------------------------------|-|
|-|----------------------------------------------------------------|-|
|o|----------------------------------------------------------------|o|
|o|----------------------------------------------------------------|o|
|-|-----------5--5------------2--3------------5--5---------8---2-3-|-|
|-|2-2222222223--3-2-2222222220--1-2-2222222223--3-2-22222-6---0-1-|-|
   . .........     . .........     . .........     . .....

Fig 5 x 1 under Rick's solo
|-|----------------------------------------------------------------|-|
|-|----------------------------------------------------------------|-|
|o|----------------------------------------------------------------|-|
|o|-----------7--7---------7--6--4------------7--7---------2--4--7-|-|
|-|4-4444444445--5-4-4444445--4--2-4-4444444445--5-4-4444440--2--5-|-|
|-|----------------------------------------------------------------|-|
   . .........     . ......        . .........     . ......

|-|----------------------------------------------------------------|-|
|-|----------------------------------------------------------------|-|
|-|----------------------------------------------------------------|o|
|-|-----------7--7---------7--6--4------------7--7---------7--6--4-|o|
|-|4-4444444445--5-4-4444445--4--2-4-4444444445--5-4-4444445--4--2-|-|
|-|----------------------------------------------------------------|-|
  . ..........     . ......        . .........     . ......

Fig 6 x 1
|-|----------------------------------------------------------------|-|
|-|----------------------------------------------------------------|-|
|o|----------------------------------------------------------------|o|
|o|------------4-------------------------------5-----------7--6--4-|o|
|-|1-11111111112-----------5--4--2-2-22222222223-----------5--4--2-|-|
|-|----------------2-2222223--2--0-----------------3-333333--------|-|
   . ..........    . ......        . ..........    . ......

|-|----------------------------------------------------------------|-|
|-|----------------------------------------------------------------|-|
|-|----------------------------------------------------------------|o|
|-|3-----------4---------------------------------------------------|o|
|-|1-----------2---5-----------5---4---------------8--7----7--5----|-|
|-|----------------3-----------3---2-------------0-6--5--0-5--3--0-|-|
                                                 .       .       .
Fig 1 x 1
|-|----------------------------------------------------------------|-|
|-|----------------------------------------------------------------|-|
|o|---h--h------------h---------------h--h-------------------------|o|
|o|4-24-24-----5-2-4-24--------2-3-4-24-24-----5-2-4-------3-------|o|
|-|4-24-24-----5-2-4-24--------2-3-4-24-24-----5-2-4-------1---2-3-|-|
|-|------------------------------------------------------------0-1-|-|
                                                   *

Fig 2a x 1 into verse
|-|----------------------------------------------------------------|-|
|-|----------------------------------------------------------------|-|
|o|----------------------------------------------------------------|o|
|o|--------------------------------------------------------3-------|o|
|-|-ph-4------5--2--ph--------2--3--ph-4------5--2-4-------1---2-3-|-|
|-|202-2-222223--0-202-22222220--1-202-2-222223--0-2-----------0-1-|-|
         .....         .......           .....     *

Fig 3 x 4 verse
|-|----------------------------------------------------------------|-|
|-|----------------------------------------------------------------|-|
|o|----------------------------------------------------------------|o|
|o|----------------------------------------------------------------|o|
|-|-----------5--2------------2--3------------5--2---------8---2-3-|-|
|-|2-2222222223--0-2-2222222220--1-2-2222222223--0-2-2222226---0-1-|-|
   . .........     . .........     . .........     . ......

Fig 4 x 1 chorus
|-|----------------------------------------------------------------|-|
|-|----------------------------------------------------------------|-|
|o|----------------------------------------------------------------|-|
|o|5-------------4-5-----------------------------------------------|-|
|-|3-------------2-3--------5--4--2--------------------------------|-|
|-|-------------------------3--2--0-2-2222222222222222222223--2--0-|-|
                                    . .....................

|-|----------------------------------------------------------------|-|
|-|----------------------------------------------------------------|-|
|-|------------------------7--6--4-----------------6---6-----------|-|
|-|5-------------4-5-------5--4--2-4-444444444444444-444-445--4----|-|
|-|3-------------2-3---------------------------------------------7-|-|
|-|----------------------------------------------------------------|-|
                                   . ..............  ..  ..

|-|----------------------------------------------------------------|-|
|-|----------------------------------------------------------------|-|
|-|----------------------------------------------------------------|-|
|-|5-------------4-5-----------------------------------------------|-|
|-|3-------------2-3--------5--4--2--------------------------------|-|
|-|-------------------------3--2--0-2-2222222222222222222223--2--0-|-|
                                    . .....................

|-|----------------------------------------------------------------|-|
|-|----------------------------------------------------------------|-|
|-|----------------------------------------------------------------|o|
|-|5-------------4-5-------9-------7-------------------------------|o|
|-|3-------------2-3-------7-------5---------------8--7----7--5----|-|
|-|----------------------------------------------0-6--5--0-5--3--0-|-|
                                                 .       .       .

Fig 7 x 1
|-|--------------------------------|-|
|-|--------------------------------|-|
|o|--------------------------------|o|
|o|--------------------------------|o|
|-|5--4----4--3----4-4-------------|-|
|-|3--2--0-2--1--0-2-2-------------|-|
         .       .   *            
Submit corrections

↑ Back to top | Tablatures and chords for acoustic guitar and electric guitar, ukulele, drums are parodies/interpretations of the original songs. You may use it for private study, scholarship, research or language learning purposes only