Home » E » Exies »

Exies - Ugly Tabs

Artists:  A B C D E F G H I J K L M N O P Q R S T U V W X Y Z # 

Ugly Tabs

(ver. 2) Click to play this song!
Exies
			     UGLY (Acoustic) - Exies

Tuning: Drop-D half step down (Db Ab Db Gb Bb eb)

INTRO/VERSE

e|-----------------------0--0--0-0-------|------------------------------|
B|-o---------------------2--2--0-0-----o-|------------------------------|
G|-----------------------2--2--2-2-------|-4--4--4--4-4-xx-2--2--2--2-2-|
D|----4--4--4--6-6-xx-0--0--0--0-0-------|-2--2--2--2-2-xx-0--0--0--0-0-|
A|-o--4--4--4--4-4-xx-0----------------o-|-2--2--2--2-2-xx-0--0--0--0-0-|
E|----4--4--4--4-4-xx-0------------------|-2--2--2--2-2-xx-0--0--0--0-0-|


CHORUS 

this is done with 2 guitars, one on chords, the other picking

I wrote them together in guitar 1

Guitar 1	     				LAST TIME
e|---------------------------------------------|--------------|
B|-------7-----------------2--------0----------|--------------|
G|-----6---6----9--------4------4-2------------|-4-4-4-4-6----|
D|---4---------7-------2-------4---------------|-2-2-2-2-6----|
A|--4---------7-------2-------2----------------|-2-2-2-2-4----|
E|-4---------7-------2-------------------------|-2-2-2-2------|

Guitar 2					LAST TIME
e|---------------------------------------------|--------------|
B|-------7----------------2---------0----------|-----2--------|
G|-----6---6----9-------4---------2------------|---2---2-6----|
D|-4-----------------2-------------------------|-0-------6----|
A|----------------------------2----------------|---------4----|
E|---------------------------------------------|--------------|

BACK TO INTRO/VERSE
CHORUS

BRIDGE
					LAST TIME
e|------------------------------------|-------------|
B|------------------------------------|-------------|
G|-----------------4-4-4-44-4-44-4-5--|-4-4-4-44-6--|
D|-0-0-0-000-0-0-004-4-4-44-4-44-4-3--|-2-2-2-22-6--|
A|-0-0-0-000-0-0-002-2-2-22-2-22-2-3--|-2-2-2-22-4--|
E|-0-0-0-000-0-0-00----------------3--|-2-2-2-22----|


THEN

GUITAR 1
e|-----------------------0--0--0-0-------|
B|-----------------------2--2--0-0-------|
G|-----------------------2--2--2-2-------|
D|----4--4--4--6-6-xx-0--0--0--0-0-------|
A|----4--4--4--4-4-xx-0------------------|
E|----4--4--4--4-4-xx-0------------------|

GUITAR 2
e|---------------------------------------|
B|---------------------------------------|
G|---------------9-6--9/11---------------|
D|---------------------------------------|
A|---------------------------------------|
E|---------------------------------------|

FINAL CHORUS
						LAST TIME
e|---------------------------------------|---------------------------------------|
B|---------------------------------------|---------------------------------------|
G|--6-6----9-9----4-4-4-4-4-44-4-6-------|-6-6-6-6-9-9-9-9-2-2-2-2-6-------------|
D|--4-4----7-7----2-2-2-2-4-44-4-6-------|-4-4-4-4-7-7-7-7-0-0-0-0-6-------------|
A|--4-4----7-7----2-2-2-2-2-22-2-4-------|-4-4-4-4-7-7-7-7-0-0-0-0-4-------------|
E|--4-4----7-7----2-2-2-2----------------|-4-4-4-4-7-7-7-7-0-0-0-0---------------|

END W/

GUITAR 1
e|------------------------------0--0--0-0-------|
B|-o----------------------------2--2--0-0-----o-|
G|------------------------------2--2--2-2-------|
D|----4-----4--4--6-6-xx--0-----0--0--0-0-------|
A|-o--4-----4--4--4-4-xx--0-------------------o-|
E|----4-----4--4--4-4-xx--0---------------------|

GUITAR 2 
e|----------------------------------------------|
B|--------7----7---7----------7----7--7---------|
G|----6h9---9-6--9----9p6-6h9---9-6--9--9p6-----|
D|----------------------------------------------|
A|----------------------------------------------|
E|----------------------------------------------|




| /  slide up
| \  slide down
| h  hammer-on
| p  pull-off
| ~  vibrato
| +  harmonic
| x  Mute note
            
Submit corrections

↑ Back to top | Tablatures and chords for acoustic guitar and electric guitar, ukulele, drums are parodies/interpretations of the original songs. You may use it for private study, scholarship, research or language learning purposes only