Home » E » Exies »

Exies - This Is The Sound Tabs

Artists:  A B C D E F G H I J K L M N O P Q R S T U V W X Y Z # 

This Is The Sound Tabs

(ver. 2) Click to play this song!
Exies
(Intro)
The Exies - This is the Sound (intro)

Guitar 1 - Clean
D|-------------------------------------------------------------------------|
A|-------------------------------------------------------------------------|
F|-------------------------------------------------------------------------|
C|7-7--7p8-8-8-8p7-----------------------------3--3-7---7-----8-8---8-7-7-7|
G|5-5--5---5-5-5-5--8--8--8p10---10-10p8-8---3-3--3-3-3-3-3-x-5-5-5-5-5-5-5|
C|0--0-0-----0-0--0-0--0--0----0-0--0----0-0-3-3--3-3-3-3-3-x-5---5-5-5---5|

D|-------------------------------------------------------------------------|
A|-------------------------------------------------------------------------|
F|----------------------------------------------3-------------3------------|
C|7-7--7p8-8-8-8p7---------------------------3--3-3---------3-3-3---------3|
G|5-5--5---5-5-5-5--8--8--8p10---10-10p8-8---1--1-1-0-0-0---1-1-1-0-0-0---1|
C|0--0-0-----0-0--0-0--0--0----0-0--0----0-0--------0-0-0-0-------0-0-0-0--|

      v - distortion kicks in here.
D|--------------------------|
A|--------------------------|
F|3-------------------------|
C|3-3-----------------------|
G|1-1-0-0-0-0-0-0-0-0-------|
C|----0-0-0-0-0-0-0-0-------|
      . . . . . . . .
            
Submit corrections

↑ Back to top | Tablatures and chords for acoustic guitar and electric guitar, ukulele, drums are parodies/interpretations of the original songs. You may use it for private study, scholarship, research or language learning purposes only