Home » E » Exies »

Exies - These Are The Days Tabs

Artists:  A B C D E F G H I J K L M N O P Q R S T U V W X Y Z # 

These Are The Days Tabs

(ver. 1) Click to play this song!
Exies
I did this by ear  so i'm sure it's right.  Enjoy  :)
Drop D is all you need  and  some distortion if you want to be cool... if not...  
u might not be that cool... HA!~

Intro
:13 DistorTION!!!!
e|-----------------------------------------------------|
b|-----------------------------------------------------|
g|-8888888888888888---88888888-------------------------|
d|-8888888888888888---88888888---6666-555--------------|  X2
a|-6666666666666666---66666666---6666-555--------------|
d|--------------------66666666---6666-555--------------|


:26 Clean
d|-----------------------------------------------------|
A|-----------------------------------------------------|
F|-8-8-8-8----8-8-8-8---------------3-3----------------|
C|-8-8-8-8----8-8-8-8----1-1-1-1----3-3----5-5---------|
G|-6-6-6-6----6-6-6-6----1-1-1-1----1-1----2-2---------|
C|------------6-6-6-6----1-1-1-1-----------------------|

 Ordianary I confess With Distortion
d|-----------------------------------------------------|
A|-----------------------------------------------------|
F|-88888-xx-88888-xx-88888-xx-88888--------------------|
C|-88888-xx-88888-xx-88888-xx-88888-//-----------------|
G|-66666-xx-66666-xx-66666-xx-66666-//-----------------|
C|-------------------66666-xx-66666-//-----------------|



d|-----------------------------------------------------|
A|-----------------------------------------------------|
F|--------------------33333-xx--3-3--------------------|
C|-11111-xx-11111-xx--33333-xx--3-3-5-5----------------|
G|-11111-xx-11111-xx--11111-xx--1-1-2-2----------------|
C|-11111-xx-11111-xx-----------------------------------|

:41 Suddenly...
d|-----------------------------------------------------|
A|-----------------------------------------------------|
F|-----------------------------------------------------|
C|-66666666--66666666--33333333--11111111--------------|
G|-66666666--66666666--33333333--11111111--------------|
C|-66666666--55555555--33333333--11111111--------------|


d|-----------------------------------------------------|
A|-----------------------------------------------------|
F|---------------------33333333------------------------|
C|-66666666--66666666--33333333--55555-----------------|
G|-66666666--66666666--11111111--22222-----------------|
C|-66666666--55555555----------------------------------|

:53 These are the days... of course w/ DISTORTION! 
kinda do rythm thing w/ it   
not  the Bb and 2/5  those are together 1 measure.

d|-------------------------------------------------------------|
A|-------------------------------------------------------------|
F|--8-8-8888-88------------------------------33333333----------|
C|--8-8-8888-88--6 6 6666 66-//-1-1-1111-11--33333333--55555555| 
G|--6-6-6666-66--6-6-6666-66-//-1-1-1111-11--11111111--22222222| 
C|---------------6-6-6666-66-//-1-1-1111-11--------------------|

~ means to let ring
d|-------------------------------------------------------------|
A|-------------------------------------------------------------|
F|--8-8-8888-88------------------------------33333333----------|
C|--8-8-8888-88--6 6 6666 66-//-1-1-1111-11--33333333--555~~~~~| 
G|--6-6-6666-66--6-6-6666-66-//-1-1-1111-11--11111111--222~~~~~| 
C|---------------6-6-6666-66-//-1-1-1111-11--------------------|
I will remember....
1:21

d|-----------------------------------------------------|
A|-----------------------------------------------------|
F|-88888-xx-88888-xx-88888-xx-88888--------------------|
C|-88888-xx-88888-xx-88888-xx-88888-//-----------------|
G|-66666-xx-66666-xx-66666-xx-66666-//-----------------|
C|-------------------66666-xx-66666-//-----------------|



d|-----------------------------------------------------|
A|-----------------------------------------------------|
F|--------------------33333-xx--3-3--------------------|
C|-11111-xx-11111-xx--33333-xx--3-3-5-5----------------|
G|-11111-xx-11111-xx--11111-xx--1-1-2-2----------------|
C|-11111-xx-11111-xx-----------------------------------|

1:35
The reasons why my heart breaks... Suddenly

d|-----------------------------------------------------|
A|-----------------------------------------------------|
F|-----------------------------------------------------|
C|-66666666--66666666--33333333--11111111--------------|
G|-66666666--66666666--33333333--11111111--------------|
C|-66666666--55555555--33333333--11111111--------------|


d|-----------------------------------------------------|
A|-----------------------------------------------------|
F|---------------------33333333------------------------|
C|-66666666--66666666--33333333--55555-----------------|
G|-66666666--66666666--11111111--22222-----------------|
C|-66666666--55555555----------------------------------|

1:47 THESE ARE THE DAYS THAT LAST FOREVER...

d|-------------------------------------------------------------|
A|-------------------------------------------------------------|
F|--8-8-8888-88------------------------------33333333----------|
C|--8-8-8888-88--6 6 6666 66-//-1-1-1111-11--33333333--55555555| 
G|--6-6-6666-66--6-6-6666-66-//-1-1-1111-11--11111111--22222222| 
C|---------------6-6-6666-66-//-1-1-1111-11--------------------|

~ means to let ring
d|-------------------------------------------------------------|
A|-------------------------------------------------------------|
F|--8-8-8888-88------------------------------33333333----------|
C|--8-8-8888-88--6 6 6666 66-//-1-1-1111-11--33333333--55555555| 
G|--6-6-6666-66--6-6-6666-66-//-1-1-1111-11--11111111--22222222| 
C|---------------6-6-6666-66-//-1-1-1111-11--------------------|

2:15
Similar to Intro ( sorry i didn't have time for the octive solo.

e|-----------------------------------------------------|
b|-----------------------------------------------------|
g|-8888888888888888---88888888-------------------------|
d|-8888888888888888---88888888---6666-555--------------|  X2
a|-6666666666666666---66666666---6666-555--------------|
d|--------------------66666666---6666-555--------------|

2:27 (1)The more I talk...  (2)Ordinary i confess...
d|-----------------------------------------------------|
A|-----------------------------------------------------|
F|-8-8-8-8----8-8-8-8---------------3-3----------------|
C|-8-8-8-8----8-8-8-8----1-1-1-1----3-3----5-5---------|  X2
G|-6-6-6-6----6-6-6-6----1-1-1-1----1-1----2-2---------|
C|------------6-6-6-6----1-1-1-1-----------------------|

2:55 These are the Days

d|-------------------------------------------------------------|
A|-------------------------------------------------------------|
F|--8-8-8888-88------------------------------33333333----------|
C|--8-8-8888-88--6 6 6666 66-//-1-1-1111-11--33333333--55555555| 
G|--6-6-6666-66--6-6-6666-66-//-1-1-1111-11--11111111--22222222| 
C|---------------6-6-6666-66-//-1-1-1111-11--------------------|


d|-------------------------------------------------------------|
A|-------------------------------------------------------------|
F|--8-8-8888-88------------------------------33333333----------|
C|--8-8-8888-88--6 6 6666 66-//-1-1-1111-11--33333333--55555555| 
G|--6-6-6666-66--6-6-6666-66-//-1-1-1111-11--11111111--22222222| 
C|---------------6-6-6666-66-//-1-1-1111-11--------------------|


Intro Again...

e|-----------------------------------------------------|
b|-----------------------------------------------------|
g|-8888888888888888---88888888-------------------------|
d|-8888888888888888---88888888---6666-555--------------|  
a|-6666666666666666---66666666---6666-555--------------|
d|--------------------66666666---6666-555--------------|

e|-----------------------------------------------------|
b|-----------------------------------------------------|
g|-8888888888888888---88888888-------------8~~~--------|
d|-8888888888888888---88888888---6666-555--8~~~--------|  
a|-6666666666666666---66666666---6666-555--6~~~--------|
d|--------------------66666666---6666-555--------------|
            
Submit corrections

↑ Back to top | Tablatures and chords for acoustic guitar and electric guitar, ukulele, drums are parodies/interpretations of the original songs. You may use it for private study, scholarship, research or language learning purposes only