Home » E » Exies »

Exies - Once In A Lifetime Tabs

Artists:  A B C D E F G H I J K L M N O P Q R S T U V W X Y Z # 

Once In A Lifetime Tabs

(ver. 1) Click to play this song!
Exies
The Exies - Once in a Lifetime

watch and listen before you rate....hell of a song..way better than the original 
Heads version.

Tuning: Drop D, 1 whole step down

INTRO/VERSE
  Part A  Part B - played approx 8 times.
D|-------|-------------------------------------|
A|-------|-------------------------------------|
F|-------|-2-2-----2-----------2-------2-------|
C|-------|-0-0-0-0-0-0-0-0---4-4---4-4-4-4-4-4-|
G|-------|-0-0-0-0-0-0-0-0-4-4-4-4-4-4-4-4-4-4-|
C|0-4-0--|---0-0-0---0-0-0-4-4-4-4-4-4-4-4-4-4-|

PRE-CHORUS/VERSE END
D|---------|
A|---------|
F|22-2-22--|
C|22-2-22--|
G|00-0-00--|
C|---------|

CHORUS 1
Part 1
D|--------------------------------|
A|--------------------------------|
F|7--7-7-77-7-77-7--7-77-77-7-77--|
C|4--4-4-77-7-77-7--7-77-77-7-77--|  3x
G|0--0-0-44-4-44-5--5-55-xx-x-xx--|
C|0--0-0-44-4-44-5--5-55-77-7-77--|

Part 2
D|--------------------------------|
A|--------------------------------|
F|7--7-7-77-7-77-7--7--------2----|
C|4--4-4-77-7-77-7--7--------0----|  1x
G|0--0-0-44-4-44-5--5--------0----|
C|0--0-0-44-4-44-5--5--0-4-0------|

VERSE

CHORUS 2
D|--------------------------------|
A|--------------------------------|
F|7--7-7-77-7-77-7--7-77-77-7-77--|
C|4--4-4-77-7-77-7--7-77-77-7-77--|  3x
G|0--0-0-44-4-44-5--5-55-xx-x-xx--|
C|0--0-0-44-4-44-5--5-55-77-7-77--|

D|-------------------------------------|
A|-------------------------------------|
F|7--7-7-77-7-77-7--7-------2-------2--|
C|4--4-4-77-7-77-7--7-------0-------0--|
G|0--0-0-44-4-44-5--5-------0--0-00-0--|
C|0--0-0-44-4-44-5--5-0-4-0-0--0-00-0--|

BRIDGE
Both Guitars
D|--------------------------------------------------------|
A|--------------------------------------------------------|
F|---------------2------2--------------------2-------2----|
C|5--5-5-55-5-0--0-0-00-0----5--5-5-55-------0--0-00-0----|
G|3--3-3-22-2-0--0-0-00-0-00-3--3-3-22-------0--0-00-0-00-|
C|3--3-3-22-2-0--0-0-00-0-00-3--3-3-22-0-4-0-0--0-00-0-00-|

D|-------------------------------------------------|
A|-------------------------------------------------|
F|---------------2------2---------------------2----|
C|5--5-5-55-5-0--0-0-00-0----5--5-5-55--------0----|
G|3--3-3-22-2-0--0-0-00-0-00-3--3-3-22--------0----|
C|3--3-3-22-2-0--0-0-00-0-00-3--3-3-22-0-4-0-(0)---|

INTRO - Part B played 6x
PRECHORUS
CHORUS - Part 1 played 6x

OUTRO
D|---------------------------------------0-|
A|---------------------------------------0-|
F|7--7-7-77-7-77-7--7-------2-------2----2-|
C|4--4-4-77-7-77-7--7-------0-------0----4-|
G|0--0-0-44-4-44-5--5-------0--0-00-0-00-4-|
C|0--0-0-44-4-44-5--5-0-5-0-0--0-00-0-00-4-|
                       ^ - acoustic comes in here
            
Submit corrections

↑ Back to top | Tablatures and chords for acoustic guitar and electric guitar, ukulele, drums are parodies/interpretations of the original songs. You may use it for private study, scholarship, research or language learning purposes only