Home » E » Exies »

Exies - Hey You Tabs

Artists:  A B C D E F G H I J K L M N O P Q R S T U V W X Y Z # 

Hey You Tabs

(ver. 3) Click to play this song!
Exies
This solo is just from ear, I can't play it myself. (too short guitar)
If you can play the intro, the solo comes by itself

---------------------
h  = hammer-on (You hold the first note, then press the next, before sound goes off)

p  = pull-off (The opposite of hammer-on. Hold on 2 notes, and release the upper note)

_  = hold (Simply hold the note/chord down)
_____________________

E[---------------------------------------|
H[---------------------------------------|
G[----------7-8-p7----------7-8-p7__-----|  x2
D[----6--8---------8---6--8--------------|
A[--8----------------8-------------------|
E[---------------------------------------|

E[---------------------------------------|
H[---------------------------------------|
G[---10-h14-h16---10-h14-h16--7-8-p7-8---|
D[---------------------------------------|
A[---------------------------------------|
E[---------------------------------------|

E[---------------------------------------|
H[---------------------------------------|
G[---10-h14-h16---10-h14-h16--7-8-p7__---|
D[---------------------------------------|
A[---------------------------------------|
E[---------------------------------------|

E[---------------------------------------|
H[---------------------------------------|
G[---10-h14-h16---10-h14-h16--7-8-p7-8---|
D[---------------------------------------|
A[---------------------------------------|
E[---------------------------------------|

E[---------------------------------------|
H[---------------------------------------|
G[---10-h14-h16---10-h14-h16--7-8-p7-8---|
D[---------------------------------------|
A[---------------------------------------|
E[---------------------------------------|

E[----------------------------------------|
H[----------------------------------------|
G[-1--------------------------------------|_________-h2____________-h3_________
D[----------------------------------------|
A[----------------------------------------|
E[----------------------------------------|
(Make sure, you have really smashed the string , so it can hold that long.)
            
Submit corrections

↑ Back to top | Tablatures and chords for acoustic guitar and electric guitar, ukulele, drums are parodies/interpretations of the original songs. You may use it for private study, scholarship, research or language learning purposes only