» » »

Exciter - Stand Up And Fight Bass

Artists:  A B C D E F G H I J K L M N O P Q R S T U V W X Y Z # 

Stand Up And Fight Bass

(ver. 1) Click to play this song!
Exciter
 Rating:
4.3/5 (26 votes)

 Stand Up And Fight  lessons Tabs too difficult? Try these video lessons and learn fast
 
                [Verse] x3

F#|-------------|-------------|-------------|----------|-------------|-------------|-------------|----------|
C#|-------------|-------------|-------------|----------|-------------|-------------|-------------|----------|
G#|-------7-7-7-|-------7-7-7-|-------7-7-7-|-5--------|-------7-7-7-|-------7-7-7-|-------7-7-7-|-5--4-----|
D#|-0-0-0-------|-0-0-0-------|-0-0-0-------|----5--7--|-0-0-0-------|-0-0-0-------|-0-0-0-------|-------5--|


[Pre-Chorus]


F#|-------------|-------------|----------|
C#|-------------|-------------|----------|
G#|-------------|-------------|-5--4-----|
D#|-3-3-3-3-3-3-|-5-5-5-5-5-5-|-------5--|


F#|-------------|-------------|-------------|----------|
C#|-------------|-------------|-------------|----------|
G#|-------7-7-7-|-------7-7-7-|-------7-7-7-|-5--4-----|
D#|-0-0-0-------|-0-0-0-------|-0-0-0-------|-------5--|

F#|-------------|-------------|
C#|-------------|-------------|
G#|-------------|-------------|
D#|-3-3-3-3-3-3-|-5-5-5-5-5-5-|


[Verse] x3

F#|-------------|-------------|-------------|----------|-------------|-------------|-------------|----------|
C#|-------------|-------------|-------------|----------|-------------|-------------|-------------|----------|
G#|-------7-7-7-|-------7-7-7-|-------7-7-7-|-5--------|-------7-7-7-|-------7-7-7-|-------7-7-7-|-5--4-----|
D#|-0-0-0-------|-0-0-0-------|-0-0-0-------|----5--7--|-0-0-0-------|-0-0-0-------|-0-0-0-------|-------5--|


[Pre-Chorus]


F#|-------------|-------------|----------|
C#|-------------|-------------|----------|
G#|-------------|-------------|-5--4-----|
D#|-3-3-3-3-3-3-|-5-5-5-5-5-5-|-------5--|


F#|-------------|-------------|-------------|----------|
C#|-------------|-------------|-------------|----------|
G#|-------7-7-7-|-------7-7-7-|-------7-7-7-|-5--4-----|
D#|-0-0-0-------|-0-0-0-------|-0-0-0-------|-------5--|

F#|-------------|-------------|
C#|-------------|-------------|
G#|-------------|-------------|
D#|-3-3-3-3-3-3-|-5-5-5-5-5-5-|

[Verse] 

F#|-------------|-------------|-------------|----------|-------------|-------------|-------------|----------|
C#|-------------|-------------|-------------|----------|-------------|-------------|-------------|----------|
G#|-------7-7-7-|-------7-7-7-|-------7-7-7-|-5--------|-------7-7-7-|-------7-7-7-|-------7-7-7-|-5--4-----|
D#|-0-0-0-------|-0-0-0-------|-0-0-0-------|----5--7--|-0-0-0-------|-0-0-0-------|-0-0-0-------|-------5--|


[Chorus]

F#|-------------|--------|-------------|--------|
C#|-------------|--------|-------------|--------|
G#|-5-----------|--------|-5-----------|-5-4----|
D#|----5--7--0--|-0------|----5--7--0--|-----5--|

[Solo Backing] x3

F#|-----------------|-----------------|-------------|-------------|-------------|-------------|
C#|-----------------|-----------------|-------------|-------------|-------------|-------------|
G#|-----------------|-----------------|-------7-7-7-|-------7-7-7-|-------7-7-7-|-------7-7-7-|
D#|-3-3-3-3-3-3-3-3-|-2-2-2-2-2-2-2-2-|-0-0-0-------|-0-0-0-------|-0-0-0-------|-0-0-0-------|

[Solo Backing End]


F#|-----------------|-----------------|---------------|------------|------------|
C#|-----------------|-----------------|---------------|------------|------------|
G#|-----------------|-----------------|-4--3-----6--5-|----8--7----|-10--9------|
D#|-3-3-3-3-3-3-3-3-|-2-2-2-2-2-2-2-2-|-------4-------|-6--------8-|--------10--|


[Verse] x3

F#|-------------|-------------|-------------|----------|-------------|-------------|-------------|----------|
C#|-------------|-------------|-------------|----------|-------------|-------------|-------------|----------|
G#|-------7-7-7-|-------7-7-7-|-------7-7-7-|-5--------|-------7-7-7-|-------7-7-7-|-------7-7-7-|-5--4-----|
D#|-0-0-0-------|-0-0-0-------|-0-0-0-------|----5--7--|-0-0-0-------|-0-0-0-------|-0-0-0-------|-------5--|


[Pre-Chorus]


F#|-------------|-------------|----------|
C#|-------------|-------------|----------|
G#|-------------|-------------|-5--4-----|
D#|-3-3-3-3-3-3-|-5-5-5-5-5-5-|-------5--|


F#|-------------|-------------|-------------|----------|
C#|-------------|-------------|-------------|----------|
G#|-------7-7-7-|-------7-7-7-|-------7-7-7-|-5--4-----|
D#|-0-0-0-------|-0-0-0-------|-0-0-0-------|-------5--|

F#|-------------|-------------|
C#|-------------|-------------|
G#|-------------|-------------|
D#|-3-3-3-3-3-3-|-5-5-5-5-5-5-|


[Outro]

F#|-------------|-------------|-------------|----------|-------------|-------------|-------------|
C#|-------------|-------------|-------------|----------|-------------|-------------|-------------|
G#|-------7-7-7-|-------7-7-7-|-------7-7-7-|-5--------|-------7-7-7-|-------7-7-7-|-------7-7-7-|
D#|-0-0-0-------|-0-0-0-------|-0-0-0-------|----5--7--|-0-0-0-------|-0-0-0-------|-0-0-0-------|

F#|---------------|------------|-------------|
C#|---------------|------------|-------------|
G#|-4--3-----6--5-|----8--7----|-10--9-----7-|
D#|-------4-------|-6--------8-|--------10---|            
Submit corrections


        Stand Up And Fight  lessons Hard to play? Try these video lessons and learn fast Stand Up And Fight  lessons
        
↑ Back to top | Tablatures and chords for acoustic guitar and electric guitar, ukulele, drums are parodies/interpretations of the original songs. You may use it for private study, scholarship, research or language learning purposes only