» » »

Exciter - Slaughtered In Vain Bass

Artists:  A B C D E F G H I J K L M N O P Q R S T U V W X Y Z # 

Slaughtered In Vain Bass

(ver. 1) Click to play this song!
Exciter
 Rating:
4/5 (4 votes)

 Slaughtered In Vain  lessons Tabs too difficult? Try these video lessons and learn fast
 
                Tuning: Standard (EADG)

Intro: (played with distortion)


G|--------------------------------------------------------------------------------------------------------|
D|--------------------------------------------------------------------------------------------------------|
A|--------------------------------------------------------------------------------------------------------|
E|--0-0-0-0-0-0-0-0-0-2h---0-0-0-0-0-0-0-0-0-2h---0-0-0-0-0-0-0-0-0-3-3-3-3-3-3--1-1-1-1-1-1--------------|

(repeat as many times needed)

Verse 1: same as intro


G|---------------------------------------------------------------------------------------------------------|
D|---------------------------------------------------------------------------------------------------------|
A|---------------------------------------------------------------------------------------------------------|
E|--0-0-0-0-0-0-0-0-0-2h---0-0-0-0-0-0-0-0-0-2h---0-0-0-0-0-0-0-0-0-3-3-3-3-3-3--1-1-1-1-1-1---------------|

(repeat as many times needed)


Verse 2:


G|---------------------------------------------------------------------------------------------------------|
D|---------------------------------------------------------------------------------------------------------|
A|---------------------------------------------------------------------------------------------------------|
E|--0-0-0-0-0-0-0-0-0-2h---0-0-0-0-0-0-0-0-0-2h---0-0-0-0-0-0-0-0-0-5-3-1-3--------------------------------|
(play this twice then go back to verse 1)

Chorus 1:


G|---------------------------------------------------------------------------------------------------------|
D|---------------------------------------------------------------------------------------------------------|
A|---------------------------------------------------------------------------------------------------------|
E|--2-2-2-2-2-2-2-2-2-2-2-2---/10-10-10-10-10-10-10-10-10--12-12-12-12-12-12-12-12-12---\2-0-2-0-2-0-------|

(repeat this twice)
                    
Chorus 2:


G|---------------------------------------------------------------------------------------------------------|
D|---------------------------------------------------------------------------------------------------------|
A|---------------------------------------------------------------------------------------------------------|
E|--2-2-2-2-2-2-2-2-2-2-2-2---/10-10-10-10-10-10-10-10-10--12-12-12-12-12-12-12-12-12---14-12-14-12--14-12-|

G|---------------------------------------------------------------------------------------------------------|
D|---------------------------------------------------------------------------------------------------------|
A|--------------------------------------17-17-17-17-17-17-17-17-17--19-19-19-19-19-19-19-19-19-------------|
E|--14-14-14-14-14-14-14-14-14-14-14-14--------------------------------------------------------2-0-2-0-2-0-|

(play this once then go to Verse 1)

Verse 1:


G|---------------------------------------------------------------------------------------------------------|
D|---------------------------------------------------------------------------------------------------------|
A|---------------------------------------------------------------------------------------------------------|
E|--0-0-0-0-0-0-0-0-0-2h---0-0-0-0-0-0-0-0-0-2h---0-0-0-0-0-0-0-0-0-3-3-3-3-3-3--1-1-1-1-1-1---------------|

(repeat as many times needed)

Verse 2:


G|---------------------------------------------------------------------------------------------------------|
D|---------------------------------------------------------------------------------------------------------|
A|---------------------------------------------------------------------------------------------------------|
E|--0-0-0-0-0-0-0-0-0-2h---0-0-0-0-0-0-0-0-0-2h---0-0-0-0-0-0-0-0-0-5-3-1-3--------------------------------|

(play this twice then go back to verse 1)


Chorus 1:


G|---------------------------------------------------------------------------------------------------------|
D|---------------------------------------------------------------------------------------------------------|
A|---------------------------------------------------------------------------------------------------------|
E|--2-2-2-2-2-2-2-2-2-2-2-2---/10-10-10-10-10-10-10-10-10--12-12-12-12-12-12-12-12-12---\2-0-2-0-2-0-------|

(repeat this twice)
                    
Chorus 2:


G|---------------------------------------------------------------------------------------------------------|
D|---------------------------------------------------------------------------------------------------------|
A|---------------------------------------------------------------------------------------------------------|
E|--2-2-2-2-2-2-2-2-2-2-2-2---/10-10-10-10-10-10-10-10-10--12-12-12-12-12-12-12-12-12---14-12-14-12--14-12-|

G|---------------------------------------------------------------------------------------------------------|
D|---------------------------------------------------------------------------------------------------------|
A|--------------------------------------17-17-17-17-17-17-17-17-17--19-19-19-19-19-19-19-19-19-------------|
E|--14-14-14-14-14-14-14-14-14-14-14-14--------------------------------------------------------2-0-2-0-2-0-|

(play this once then go to the solo backing riff)


Solo Backing Riff:

G|---------------------------------------------------------------------------------------------------------|
D|---------------------------------------------------------------------------------------------------------|
A|---------------------------------------------------------------------------------------------------------|
E|--0-0-0-0-0-0-0-0-0-3-3-3-3-3-3-3-3-3-1-1-1-1-1-1-1-1-1-0-0-0-0-0-0-0-0-0-10-10-10-10-10-10-10-10-10-----|

(repeat as many times needed)


Chorus 1:


G|---------------------------------------------------------------------------------------------------------|
D|---------------------------------------------------------------------------------------------------------|
A|---------------------------------------------------------------------------------------------------------|
E|--2-2-2-2-2-2-2-2-2-2-2-2---/10-10-10-10-10-10-10-10-10--12-12-12-12-12-12-12-12-12---\2-0-2-0-2-0-------|

(repeat this twice)
                    
Chorus 2:


G|---------------------------------------------------------------------------------------------------------|
D|---------------------------------------------------------------------------------------------------------|
A|---------------------------------------------------------------------------------------------------------|
E|--2-2-2-2-2-2-2-2-2-2-2-2---/10-10-10-10-10-10-10-10-10--12-12-12-12-12-12-12-12-12---14-12-14-12--14-12-|

G|---------------------------------------------------------------------------------------------------------|
D|---------------------------------------------------------------------------------------------------------|
A|--------------------------------------17-17-17-17-17-17-17-17-17--19-19-19-19-19-19-19-19-19-------------|
E|--14-14-14-14-14-14-14-14-14-14-14-14-------------------------------------------------------*2-0-2-0-2-0-|




            
Submit corrections


        Slaughtered In Vain  lessons Hard to play? Try these video lessons and learn fast Slaughtered In Vain  lessons
        
↑ Back to top | Tablatures and chords for acoustic guitar and electric guitar, ukulele, drums are parodies/interpretations of the original songs. You may use it for private study, scholarship, research or language learning purposes only