» » »

Exciter - Cry Of The Banshee Bass

Artists:  A B C D E F G H I J K L M N O P Q R S T U V W X Y Z # 

Cry Of The Banshee Bass

(ver. 1) Click to play this song!
Exciter
 Rating:
4.2/5 (30 votes)

 Cry Of The Banshee  lessons Tabs too difficult? Try these video lessons and learn fast
 
                [Intro]

F#|------------|
C#|------------|
G#|------------|
D#|---0--------|


[Main Riff]

F#|---------------|---------------|---------------|-----------------|
C#|---------------|---------------|---------------|-----------------|
G#|-7-7-----------|-7-7-----------|-5-5-----------|-7-7-10p9-10p9---|
D#|-----0-0-0-0-0-|-----0-0-0-0-0-|-----0-0-0-0-0-|-----------------|

F#|---------------|---------------|---------------|-9--7--------------|
C#|---------------|---------------|---------------|-------9--7--------|
G#|-7-7-----------|-7-7-----------|-5-5-----------|------------10-9-7-|
D#|-----0-0-0-0-0-|-----0-0-0-0-0-|-----0-0-0-0-0-|-------------------|


[Verse] x4

F#|---------------|---------------|---------------|-----------------|
C#|---------------|---------------|---------------|-----------------|
G#|-7-7-----------|-7-7-----------|-5-5-----------|-7-7-10p9-10p9---|
D#|-----0-0-0-0-0-|-----0-0-0-0-0-|-----0-0-0-0-0-|-----------------|

[Chorus]

F#|---------------|---------------|---------------|-------------|
C#|---------------|---------------|---------------|-------------|
G#|---------------|---------------|-3-3-3-3-3-3-3-|-2-2-2-2-2-2-|
D#|-5-5-5-5-5-5-5-|-3-3-3-3-3-3-3-|---------------|-------------|


F#|---------------|---------------|
C#|---------------|---------------|
G#|---------------|---------------|
D#|-5-5-5-5-5-5-5-|-3-3-3--2-2-2--|

[Main Riff]

F#|---------------|---------------|---------------|-----------------|
C#|---------------|---------------|---------------|-----------------|
G#|-7-7-----------|-7-7-----------|-5-5-----------|-7-7-10p9-10p9---|
D#|-----0-0-0-0-0-|-----0-0-0-0-0-|-----0-0-0-0-0-|-----------------|

F#|---------------|---------------|---------------|-9--7--------------|
C#|---------------|---------------|---------------|-------9--7--------|
G#|-7-7-----------|-7-7-----------|-5-5-----------|------------10-9-7-|
D#|-----0-0-0-0-0-|-----0-0-0-0-0-|-----0-0-0-0-0-|-------------------|


[Verse] x4

F#|---------------|---------------|---------------|-----------------|
C#|---------------|---------------|---------------|-----------------|
G#|-7-7-----------|-7-7-----------|-5-5-----------|-7-7-10p9-10p9---|
D#|-----0-0-0-0-0-|-----0-0-0-0-0-|-----0-0-0-0-0-|-----------------|

[Chorus]

F#|---------------|---------------|---------------|-------------|
C#|---------------|---------------|---------------|-------------|
G#|---------------|---------------|-3-3-3-3-3-3-3-|-2-2-2-2-2-2-|
D#|-5-5-5-5-5-5-5-|-3-3-3-3-3-3-3-|---------------|-------------|


F#|---------------|---------------|
C#|---------------|---------------|
G#|---------------|---------------|
D#|-5-5-5-5-5-5-5-|-3-3-3--2-2-2--|

[Main Riff]

F#|---------------|---------------|---------------|-----------------|
C#|---------------|---------------|---------------|-----------------|
G#|-7-7-----------|-7-7-----------|-5-5-----------|-7-7-10p9-10p9---|
D#|-----0-0-0-0-0-|-----0-0-0-0-0-|-----0-0-0-0-0-|-----------------|

F#|---------------|---------------|---------------|-9--7--------------|
C#|---------------|---------------|---------------|-------9--7--------|
G#|-7-7-----------|-7-7-----------|-5-5-----------|------------10-9-7-|
D#|-----0-0-0-0-0-|-----0-0-0-0-0-|-----0-0-0-0-0-|-------------------|

[Verse] x4

F#|---------------|---------------|---------------|-----------------|
C#|---------------|---------------|---------------|-----------------|
G#|-7-7-----------|-7-7-----------|-5-5-----------|-7-7-10p9-10p9---|
D#|-----0-0-0-0-0-|-----0-0-0-0-0-|-----0-0-0-0-0-|-----------------|


[Chorus]

F#|---------------|---------------|---------------|-------------|
C#|---------------|---------------|---------------|-------------|
G#|---------------|---------------|-3-3-3-3-3-3-3-|-2-2-2-2-2-2-|
D#|-5-5-5-5-5-5-5-|-3-3-3-3-3-3-3-|---------------|-------------|


F#|---------------|---------------|
C#|---------------|---------------|
G#|---------------|---------------|
D#|-5-5-5-5-5-5-5-|-3-3-3--2-2-2--|

[Main Riff] x2

F#|---------------|---------------|---------------|-----------------|
C#|---------------|---------------|---------------|-----------------|
G#|-7-7-----------|-7-7-----------|-5-5-----------|-7-7-10p9-10p9---|
D#|-----0-0-0-0-0-|-----0-0-0-0-0-|-----0-0-0-0-0-|-----------------|

F#|---------------|---------------|---------------|-9--7--------------|
C#|---------------|---------------|---------------|-------9--7--------|
G#|-7-7-----------|-7-7-----------|-5-5-----------|------------10-9-7-|
D#|-----0-0-0-0-0-|-----0-0-0-0-0-|-----0-0-0-0-0-|-------------------|


[Verse] x4

F#|---------------|---------------|---------------|-----------------|
C#|---------------|---------------|---------------|-----------------|
G#|-7-7-----------|-7-7-----------|-5-5-----------|-7-7-10p9-10p9---|
D#|-----0-0-0-0-0-|-----0-0-0-0-0-|-----0-0-0-0-0-|-----------------|

[Chorus]

F#|---------------|---------------|---------------|-------------|
C#|---------------|---------------|---------------|-------------|
G#|---------------|---------------|-3-3-3-3-3-3-3-|-2-2-2-2-2-2-|
D#|-5-5-5-5-5-5-5-|-3-3-3-3-3-3-3-|---------------|-------------|


F#|---------------|---------------|
C#|---------------|---------------|
G#|---------------|---------------|
D#|-5-5-5-5-5-5-5-|-3-3-3--2-2-2--|

[Verse] x4

F#|---------------|---------------|---------------|-----------------|
C#|---------------|---------------|---------------|-----------------|
G#|-7-7-----------|-7-7-----------|-5-5-----------|-7-7-10p9-10p9---|
D#|-----0-0-0-0-0-|-----0-0-0-0-0-|-----0-0-0-0-0-|-----------------|


[Bridge]


F#|----------|----------|
C#|----------|----------|
G#|-7--------|-3----5---|
D#|----------|----------|

[Bridge Riff 2] x13

F#|---------------------------------|-----------------------|-----------|---------|
C#|---------------------------------|-----------------------|-----------|---------|
G#|-7-7-7-7-7-7-7-7-7-7-7-7-7-7-7-7-|-5-5-5-5-5-5-5-5-5-5-5-|-7-7-7-7-7-|-2--3--5-|
D#|---------------------------------|-----------------------|-----------|---------|

[Outro]

F#|---------|------------|------------|
C#|---------|------------|------------|
G#|-2--3--5-|------------|-------7-7--|
D#|---------|-3--5--7--0-|-3--5-------|
            
Submit corrections


        Cry Of The Banshee  lessons Hard to play? Try these video lessons and learn fast Cry Of The Banshee  lessons
        
↑ Back to top | Tablatures and chords for acoustic guitar and electric guitar, ukulele, drums are parodies/interpretations of the original songs. You may use it for private study, scholarship, research or language learning purposes only