» » »

Exciter - Aggressor Bass

Artists:  A B C D E F G H I J K L M N O P Q R S T U V W X Y Z # 

Aggressor Bass

(ver. 1) Click to play this song!
Exciter
 Rating:
4/5 (4 votes)

 Aggressor  lessons Tabs too difficult? Try these video lessons and learn fast
 
                Tuning: Standard (EADG)


Intro:

G|---------------------------------------------------------------------------|
D|---------------------------------------------------------------------------|
A|---------------------------------------------------------------------------|
E|--1--3--0----1--3--0----1--3--0----1--3--0---------------------------------|
("In the Depths of an evil mind")

(let all 0's ring except the last one)


Intro Break: (after the silence)

G|---------------------------------------------------------------------------|
D|---------------------------------------------------------------------------|
A|---------------------------------------------------------------------------|
E|--00000000000000--1-3-0*-00000000000000--1-3-0*-00000000000000000----------|
("The Aggression is On")

(hit the 0's as many times needed and repeat that part as many times needed)
(* play this note really quick then proceed to the string slaughter on the open E. you
can also skip the note)


Verse 1:

G|---------------------------------------------------------------------------|
D|---------------------------------------------------------------------------|
A|---------------------------------------------------------------------------|
E|--1-3-0000000000000000---1-3-0000000000000000---1-3-00000000000000---------|
("Suicide haunts the Ghost of Death")

(same as the intro break riff, just repeat as many times needed)

Verse 2:

G|---------------------------------------------------------------------------|
D|---------------------------------------------------------------------------|
A|---00000000000000000000------33333333333333333333333-----------------------|
E|---------------------------------------------------------------------------|
("In his Mind lies a Guilt")

(start playing the 3's when he's screaming remooorse in "tormenter without remorse")
The 0's played in this Riff are awkwardly long (imo), so make sure to get the rhythm right.
You can also instead of playing the open A, use the 5th fret on the E String it sounds 
good either way.


Chorus

G|---------------------------------------------------------------------------|
D|---------------------------------------------------------------------------|
A|----------------------------3-5-3-5----------------------------------------|
E|--00---00--01-01----00---00------------------------------------------------|
("Aggressor,Aggressor")

repeat chorus twice


then back to the Verse 1


G|---------------------------------------------------------------------------|
D|---------------------------------------------------------------------------|
A|---------------------------------------------------------------------------|
E|--0000000000000000---1-3-0000000000000000---1-3-00000000000000-------------|

(again just repeat as often as you need to)

Verse 2

G|---------------------------------------------------------------------------|
D|---------------------------------------------------------------------------|
A|---00000000000000000000------33333333333333333333333-----------------------|
E|---------------------------------------------------------------------------|
("In his Mind lies a Guilt")

(play like noted earlier above)


Chorus

G|---------------------------------------------------------------------------|
D|---------------------------------------------------------------------------|
A|----------------------------3-5-3-5----------------------------------------|
E|--00---00--01-01----00---00------------------------------------------------|
("Aggressor,Aggressor")

repeat chorus twice again

Again Verse 1 + Verse 2 (just look above how they're played)

Solo backing Riff 1 (instead of chorus)

G|------------------------------------------------------------------------------|
D|------------------------------------------------------------------------------|
A|------------------------------------------------------------------------------|
E|--00---00-----00---00---------------------------------------------------------|

(play the above when jacques stops singing and ricci starts the solo + play it twice)

Solo backing Riff 2

G|---------------------------------------------------------------------------|
D|---------------------------------------------------------------------------|
A|---------------------------------------------------------------------------|
E|--22222222222222-3-5--222222222222222-3-5--2222222222222-3-5--222222222222-|

(this has the same rhythm as the verse just different notes play this while ricci is soloing)

then one last chorus

G|---------------------------------------------------------------------------|
D|---------------------------------------------------------------------------|
A|----------------------------3-5-3-5----------------------------------------|
E|--00---00--01-01----00---00------------------------------------------------|
("Aggressor,Aggressor")            
Submit corrections


        Aggressor  lessons Hard to play? Try these video lessons and learn fast Aggressor  lessons
        
↑ Back to top | Tablatures and chords for acoustic guitar and electric guitar, ukulele, drums are parodies/interpretations of the original songs. You may use it for private study, scholarship, research or language learning purposes only