» » »

Evocation - Metus Odium Tabs

Artists:  A B C D E F G H I J K L M N O P Q R S T U V W X Y Z # 

Metus Odium Tabs

(ver. 1) Click to play this song!
Evocation
 Rating:
4.3/5 (18 votes)

 Metus Odium lessons Tabs too difficult? Try these video lessons and learn fast
 
                Lead Guitar

           PM------------------------------------|
B |----------------------------------------------------|
F#|----------------------------------------------------|
D |----------------------------------------------------|
A |----------------------------------------------------|
E |----------------------------------------------------|
B |--0-----0-----0-----0-----0-----0--0--0--0--0-------|

        PM------------------------------------|
----------------------------------------------------|
----------------------------------------------------|
----------------------------------------------------|
----------------------------------------------------|
----------------------------------------------------|
--0-----0-----0-----0-----0-----0--0--0--0--0-------|

        PM------------------------------------|
----------------------------------------------------|
----------------------------------------------------|
----------------------------------------------------|
----------------------------------------------------|
----------------------------------------------------|
--8-----8-----8-----8-----8-----8--8--8--8--8-------|

        PM------------------------------------|
----------------------------------------------------|
----------------------------------------------------|
----------------------------------------------------|
----------------------------------------------------|
----------------------------------------------------|
--5-----5-----5-----5-----5--5--5--5--5-----5--5----|

        PM------------------------------------|
----------------------------------------------------|
----------------------------------------------------|
----------------------------------------------------|
----------------------------------------------------|
----------------------------------------------------|
--0-----0-----0-----0-----0-----0--0--0--0--0-------|

        PM------------------------------------|
----------------------------------------------------|
----------------------------------------------------|
----------------------------------------------------|
----------------------------------------------------|
----------------------------------------------------|
--0-----0-----0-----0-----0-----0--0--0--0--0-------|

        PM------------------------------------|
----------------------------------------------------|
----------------------------------------------------|
----------------------------------------------------|
----------------------------------------------------|
----------------------------------------------------|
--8-----8-----8-----8-----8-----8--8--8--8--8-------|

        PM------------------------------------|
----------------------------------------------------|
----------------------------------------------------|
----------------------------------------------------|
----------------------------------------------------|
----------------------------------------------------|
--5-----5-----5-----5-----5--5--5--5--5-----5--5----|

        
----------------------------------------------------|
----------------------------------------------------|
----------------------------------------------------|
----------------------------------------------------|
--7--7--7--7--7--7--7--7--7--7--7--7--6--6--6--6----|
----------------------------------------------------|

        
----------------------------------------------------|
----------------------------------------------------|
----------------------------------------------------|
----------------------------------------------------|
--7--7--7--7--7--7--7--7--7--7--7--7--7--7--7--7----|
----------------------------------------------------|


----------------------------------------------------|
----------------------------------------------------|
----------------------------------------------------|
----------------------------------------------------|
--10-10-10-10-10-10-10-10-10-10-10-10-10-10-10-10---|
----------------------------------------------------|


----------------------------------------------------|
----------------------------------------------------|
----------------------------------------------------|
----------------------------------------------------|
--9--9--9--9--9--9--9--9--9--9--9--9--9--9--9--9----|
----------------------------------------------------|


----------------------------------------------------|
----------------------------------------------------|
----------------------------------------------------|
----------------------------------------------------|
--7--7--7--7--7--7--7--7--7--7--7--7--6--6--6--6----|
----------------------------------------------------|


----------------------------------------------------|
----------------------------------------------------|
----------------------------------------------------|
----------------------------------------------------|
--7--7--7--7--2--2--2--2--2--2--2--2--2--2--2--2----|
----------------------------------------------------|


----------------------------------------------------|
----------------------------------------------------|
----------------------------------------------------|
----------------------------------------------------|
--3--3--3--3--3--3--3--3--3--3--3--3--3--3--3--3----|
----------------------------------------------------|


----------------------------------------------------|
----------------------------------------------------|
----------------------------------------------------|
----------------------------------------------------|
--0--0--0--0--0--0--0--0--6--6--6--6--6--6--6--6----|
----------------------------------------------------|

        PM------------------|
----------------------------------------------------|
----------------------------------------------------|
----------------------------------------------------|
----------------------------------------------------|
--7-----------------------------7h-9h-10----6-------|
--------0-----0-----0-----0-------------------------|

        PM------------------|
----------------------------------------------------|
----------------------------------------------------|
----------------------------------------------------|
----------------------------------------------------|
--7-----------------------------7h-9h-10----6-------|
--------0-----0-----0-----0-------------------------|

        PM------------------|
----------------------------------------------------|
----------------------------------------------------|
----------------------------------------------------|
----------------------------------------------------|
--7-----------------------------7h-9h-10----6-------|
--------0-----0-----0-----0-------------------------|

 PM----------------------------------------------|
----------------------------------------------------|
----------------------------------------------------|
----------------------------------------------------|
----------------------------------------------------|
--0--0--0--0--0--0--2--2--3--3--3--3--3--3--3--3----|
----------------------------------------------------|

        PM------------------|
----------------------------------------------------|
----------------------------------------------------|
----------------------------------------------------|
----------------------------------------------------|
--7-----------------------------7h-9h-10----6-------|
--------0-----0-----0-----0-------------------------|

        PM------------------|
----------------------------------------------------|
----------------------------------------------------|
----------------------------------------------------|
----------------------------------------------------|
--7-----------------------------7h-9h-10----6-------|
--------0-----0-----0-----0-------------------------|

        PM------------------|
----------------------------------------------------|----------------|
----------------------------------------------------|----------------|
----------------------------------------------------|----------------|
----------------------------------------------------|--7-----4--4----|
--7-----------------------------7h-9h-10----6-------|--7-----4--4----|
--------0-----0-----0-----0-------------------------|--5-----2--2----|

        PM------------------|
----------------------------------------------------|
----------------------------------------------------|
----------------------------------------------------|
----------------------------------------------------|
--7-----------------------------7h-9h-10----6-------|
--------0-----0-----0-----0-------------------------|

        PM------------------|
----------------------------------------------------|
----------------------------------------------------|
----------------------------------------------------|
----------------------------------------------------|
--7-----------------------------7h-9h-10----6-------|
--------0-----0-----0-----0-------------------------|

        PM------------------|
----------------------------------------------------|
----------------------------------------------------|
----------------------------------------------------|
----------------------------------------------------|
--7-----------------------------7h-9h-10----6-------|
--------0-----0-----0-----0-------------------------|

 PM----------------------------------------------|
----------------------------------------------------|
----------------------------------------------------|
----------------------------------------------------|
----------------------------------------------------|
--0--0--0--0--0--0--2--2--3--3--3--3--3--3--3--3----|
----------------------------------------------------|

        PM------------------|
----------------------------------------------------|
----------------------------------------------------|
----------------------------------------------------|
----------------------------------------------------|
--7-----------------------------7h-9h-10----6-------|
--------0-----0-----0-----0-------------------------|

        PM------------------|
----------------------------------------------------|
----------------------------------------------------|
----------------------------------------------------|
----------------------------------------------------|
--7-----------------------------7h-9h-10----6-------|
--------0-----0-----0-----0-------------------------|

        PM------------------|
----------------------------------------------------|
----------------------------------------------------|
----------------------------------------------------|
----------------------------------------------------|
--7-----------------------------7h-9h-10----6-------|
--------0-----0-----0-----0-------------------------|

PM----------------------------------------------|
----------------------------------------------------|
----------------------------------------------------|
----------------------------------------------------|
----------------------------------------------------|
--0--0--0--0--0--0--0--0----------------------------|
--------------------------3--3--3--3--2--2--2--2----|


----------------------------------------------------|
----------------------------------------------------|
----------------------------------------------------|
--7--7--7--7--7--7--7--7--7--7--7--7--9--9--9--9----|
----------------------------------------------------|
----------------------------------------------------|


----------------------------------------------------|
----------------------------------------------------|
--------------------------7--7--7--7--7--7--7--7----|
--10-10-10-10-10-10-10-10---------------------------|
----------------------------------------------------|
----------------------------------------------------|


----------------------------------------------------|
----------------------------------------------------|
----------------------------------------------------|
--9--9--9--9--9--9--9--9--9--9--9--9--9--9--9--9----|
----------------------------------------------------|
----------------------------------------------------|


----------------------------------------------------|
----------------------------------------------------|
----------------------------------------------------|
--7--7--7--7--7--7--7--7--9--9--9--9--9--9--9--9----|
----------------------------------------------------|
----------------------------------------------------|


----------------------------------------------------|
----------------------------------------------------|
----------------------------------------------------|
--7--7--7--7--7--7--7--7--7--7--7--7----------------|
--------------------------------------10-10-10-10---|
----------------------------------------------------|


----------------------------------------------------|
----------------------------------------------------|
----------------------------------------------------|
----------------------------------------------------|
--9--9--9--9--9--9--9--9--10-10-10-10-10-10-10-10---|
----------------------------------------------------|

        PM------------------|
----------------------------------------------------|
----------------------------------------------------|
----------------------------------------------------|
----------------------------------------------------|
--7-----------------------------7h-9h-10----6-------|
--------0-----0-----0-----0-------------------------|

        PM------------------|
----------------------------------------------------|
----------------------------------------------------|
----------------------------------------------------|
----------------------------------------------------|
--7-----------------------------7h-9h-10----6-------|
--------0-----0-----0-----0-------------------------|

        PM------------------|
----------------------------------------------------|-------|
----------------------------------------------------|-------|
----------------------------------------------------|-------|
----------------------------------------------------|-------|
--7-----------------------------7h-9h-10----6-------|-------|
--------0-----0-----0-----0-------------------------|-------|

        PM------------------|
----------------------------------------------------|
----------------------------------------------------|
----------------------------------------------------|
----------------------------------------------------|
--7-----------------------------7h-9h-10----6-------|
--------0-----0-----0-----0-------------------------|

        PM------------------|
----------------------------------------------------|
----------------------------------------------------|
----------------------------------------------------|
----------------------------------------------------|
--7-----------------------------7h-9h-10----6-------|
--------0-----0-----0-----0-------------------------|

        PM------------------|
----------------------------------------------------|
----------------------------------------------------|
----------------------------------------------------|
----------------------------------------------------|
--7-----------------------------7h-9h-10----6-------|
--------0-----0-----0-----0-------------------------|


 PM----------------------------------------------|
----------------------------------------------------|
----------------------------------------------------|
----------------------------------------------------|
----------------------------------------------------|
--0--0--0--0--0--0--2--2--3--3--3--3--3--3--3--3----|
----------------------------------------------------|

        PM------------------|
----------------------------------------------------|
----------------------------------------------------|
----------------------------------------------------|
----------------------------------------------------|
--7-----------------------------7h-9h-10----6-------|
--------0-----0-----0-----0-------------------------|

        PM------------------|
----------------------------------------------------|
----------------------------------------------------|
----------------------------------------------------|
----------------------------------------------------|
--7-----------------------------7h-9h-10----6-------|
--------0-----0-----0-----0-------------------------|

        PM------------------|
----------------------------------------------------|
----------------------------------------------------|
----------------------------------------------------|
----------------------------------------------------|
--7-----------------------------7h-9h-10----6-------|
--------0-----0-----0-----0-------------------------|

 PM----------------------------------------------|
----------------------------------------------------|
----------------------------------------------------|
----------------------------------------------------|
----------------------------------------------------|
--0--0--0--0--0--0--0--0----------------------------|
--------------------------3--3--3--3--2--2--2--2----|


----------------------------------------------------|
----------------------------------------------------|
----------------------------------------------------|
--7--7--7--7--7--7--7--7--7--7--7--7--9--9--9--9----|
----------------------------------------------------|
----------------------------------------------------|


----------------------------------------------------|
----------------------------------------------------|
--------------------------7--7--7--7--7--7--7--7----|
--10-10-10-10-10-10-10-10---------------------------|
----------------------------------------------------|
----------------------------------------------------|


----------------------------------------------------|
----------------------------------------------------|
----------------------------------------------------|
--9--9--9--9--9--9--9--9--9--9--9--9--9--9--9--9----|
----------------------------------------------------|
----------------------------------------------------|


----------------------------------------------------|
----------------------------------------------------|
----------------------------------------------------|
--7--7--7--7--7--7--7--7--9--9--9--9--9--9--9--9----|
----------------------------------------------------|
----------------------------------------------------|


----------------------------------------------------|
----------------------------------------------------|
----------------------------------------------------|
--7--7--7--7--7--7--7--7--7--7--7--7----------------|
--------------------------------------10-10-10-10---|
----------------------------------------------------|


----------------------------------------------------|
----------------------------------------------------|
----------------------------------------------------|
----------------------------------------------------|
--9--9--9--9--9--9--9--9--10-10-10-10-10-10-10-10---|
----------------------------------------------------|


----------------------------------------------------|
----------------------------------------------------|
----------------------------------------------------|
----------------------------------------------------|
--7--7--7--7--7--7--7--7--7--7--7--7--7--7--7--7----|
----------------------------------------------------|


----------------------------------------------------|
----------------------------------------------------|
----------------------------------------------------|
--7--7--7--7--7--7--7--7--9--9--9--9--9--9--9--9----|
----------------------------------------------------|
----------------------------------------------------|


----------------------------------------------------|
----------------------------------------------------|
----------------------------------------------------|
--7--7--7--7--7--7--7--7--7--7--7--7--9--9--9--9----|
----------------------------------------------------|
----------------------------------------------------|


----------------------------------------------------|
----------------------------------------------------|
--------------------------7--7--7--7--7--7--7--7----|
--10-10-10-10-10-10-10-10---------------------------|
----------------------------------------------------|
----------------------------------------------------|


----------------------------------------------------|
----------------------------------------------------|
----------------------------------------------------|
--9--9--9--9--9--9--9--9--9--9--9--9--9--9--9--9----|
----------------------------------------------------|
----------------------------------------------------|


----------------------------------------------------|
----------------------------------------------------|
----------------------------------------------------|
--7--7--7--7--7--7--7--7--9--9--9--9--9--9--9--9----|
----------------------------------------------------|
----------------------------------------------------|


----------------------------------------------------|
----------------------------------------------------|
----------------------------------------------------|
--7--7--7--7--7--7--7--7--7--7--7--7----------------|
--------------------------------------10-10-10-10---|
----------------------------------------------------|


----------------------------------------------------|
----------------------------------------------------|
----------------------------------------------------|
----------------------------------------------------|
--9--9--9--9--9--9--9--9--10-10-10-10-10-10-10-10---|
----------------------------------------------------|


----------------------------------------------------|
----------------------------------------------------|
----------------------------------------------------|
--7--7--7--7--7--7--7--7--11-11-11-11-11-11-11-11---|
----------------------------------------------------|
----------------------------------------------------|


----------------------------------------------------|
----------------------------------------------------|
----------------------------------------------------|
--9--9--9--9--9--9--9--9--7--7--7--7--7--7--7--7----|
----------------------------------------------------|
----------------------------------------------------|


----------------------------------------------------|
----------------------------------------------------|
----------------------------------------------------|
--9--9--9--9--9--9--9--9--9--9--9--9--9--9--9--9----|
----------------------------------------------------|
----------------------------------------------------|


----------------------------------------------------|
----------------------------------------------------|
----------------------------------------------------|
--7--7--7--7--7--7--7--7--6--6--6--6--6--6--6--6----|
----------------------------------------------------|
----------------------------------------------------|


----------------------------------------------------|
----------------------------------------------------|
----------------------------------------------------|
--7--7--7--7--7--7--7--7--11-11-11-11-11-11-11-11---|
----------------------------------------------------|
----------------------------------------------------|


----------------------------------------------------|
----------------------------------------------------|
----------------------------------------------------|
--9--9--9--9--9--9--9--9--7--7--7--7--7--7--7--7----|
----------------------------------------------------|
----------------------------------------------------|


----------------------------------------------------|
----------------------------------------------------|
----------------------------------------------------|
--9--9--9--9--9--9--9--9--9--9--9--9--9--9--9--9----|
----------------------------------------------------|
----------------------------------------------------|


----------------------------------------------------|
----------------------------------------------------|
----------------------------------------------------|
--7--7--7--7--7--7--7--7--6--6--6--6--6--6--6--6----|
----------------------------------------------------|
----------------------------------------------------|


----------------------------------------------------|
----------------------------------------------------|
----------------------------------------------------|
--7--7--7--7--7--7--7--7--11-11-11-11-11-11-11-11---|
----------------------------------------------------|
----------------------------------------------------|


----------------------------------------------------|
----------------------------------------------------|
----------------------------------------------------|
--9--9--9--9--9--9--9--9--7--7--7--7--7--7--7--7----|
----------------------------------------------------|
----------------------------------------------------|


----------------------------------------------------|
----------------------------------------------------|
----------------------------------------------------|
--9--9--9--9--9--9--9--9--9--9--9--9--9--9--9--9----|
----------------------------------------------------|
----------------------------------------------------|


----------------------------------------------------|
----------------------------------------------------|
----------------------------------------------------|
--7--7--7--7--7--7--7--7--6--6--6--6--6--6--6--6----|
----------------------------------------------------|
----------------------------------------------------|


----------------------------------------------------|
----------------------------------------------------|
----------------------------------------------------|
--7--7--7--7--7--7--7--7--11-11-11-11-11-11-11-11---|
----------------------------------------------------|
----------------------------------------------------|


----------------------------------------------------|
----------------------------------------------------|
----------------------------------------------------|
--9--9--9--9--9--9--9--9--7--7--7--7--7--7--7--7----|
----------------------------------------------------|
----------------------------------------------------|


----------------------------------------------------|
----------------------------------------------------|
--7--7--7--7--7--7--7--7--7--7--7--7--7--7--7--7----|
----------------------------------------------------|
----------------------------------------------------|
----------------------------------------------------|


----------------------------------------------------|
----------------------------------------------------|
--6--6--6--6--6--6--6--6--6--6--6--6--6--6--6--6----|
----------------------------------------------------|
----------------------------------------------------|
----------------------------------------------------|

        PM------------------|
----------------------------------------------------|
----------------------------------------------------|
----------------------------------------------------|
----------------------------------------------------|
--7-----------------------------7h-9h-10----6-------|
--------0-----0-----0-----0-------------------------|

        PM------------------|
----------------------------------------------------|
----------------------------------------------------|
----------------------------------------------------|
----------------------------------------------------|
--7-----------------------------7h-9h-10----6-------|
--------0-----0-----0-----0-------------------------|

        PM------------------|
----------------------------------------------------|----------------|
----------------------------------------------------|----------------|
----------------------------------------------------|----------------|
----------------------------------------------------|--7-----4--4----|
--7-----------------------------7h-9h-10----6-------|--7-----4--4----|
--------0-----0-----0-----0-------------------------|--5-----2--2----|

        PM------------------|
----------------------------------------------------|
----------------------------------------------------|
----------------------------------------------------|
----------------------------------------------------|
--7-----------------------------7h-9h-10----6-------|
--------0-----0-----0-----0-------------------------|

        PM------------------|
----------------------------------------------------|
----------------------------------------------------|
----------------------------------------------------|
----------------------------------------------------|
--7-----------------------------7h-9h-10----6-------|
--------0-----0-----0-----0-------------------------|

        PM------------------|
----------------------------------------------------|
----------------------------------------------------|
----------------------------------------------------|
----------------------------------------------------|
--7-----------------------------7h-9h-10----6-------|
--------0-----0-----0-----0-------------------------|

 PM----------------------------------------------|
----------------------------------------------------|
----------------------------------------------------|
----------------------------------------------------|
----------------------------------------------------|
--0--0--0--0--0--0--2--2--3--3--3--3--3--3--3--3----|
----------------------------------------------------|

        PM------------------|
----------------------------------------------------|
----------------------------------------------------|
----------------------------------------------------|
----------------------------------------------------|
--7-----------------------------7h-9h-10----6-------|
--------0-----0-----0-----0-------------------------|

        PM------------------|
----------------------------------------------------|
----------------------------------------------------|
----------------------------------------------------|
----------------------------------------------------|
--7-----------------------------7h-9h-10----6-------|
--------0-----0-----0-----0-------------------------|

        PM------------------|
----------------------------------------------------|
----------------------------------------------------|
----------------------------------------------------|
----------------------------------------------------|
--7-----------------------------7h-9h-10----6-------|
--------0-----0-----0-----0-------------------------|

 PM----------------------------------------------|
----------------------------------------------------|
----------------------------------------------------|
----------------------------------------------------|
----------------------------------------------------|
--0--0--0--0--0--0--0--0----------------------------|
--------------------------3--3--3--3--2--2--2--2----|


----------------------------------------------------|
----------------------------------------------------|
----------------------------------------------------|
--7--7--7--7--7--7--7--7--7--7--7--7--9--9--9--9----|
----------------------------------------------------|
----------------------------------------------------|


----------------------------------------------------|
----------------------------------------------------|
--------------------------7--7--7--7--7--7--7--7----|
--10-10-10-10-10-10-10-10---------------------------|
----------------------------------------------------|
----------------------------------------------------|


----------------------------------------------------|
----------------------------------------------------|
----------------------------------------------------|
--9--9--9--9--9--9--9--9--9--9--9--9--9--9--9--9----|
----------------------------------------------------|
----------------------------------------------------|


----------------------------------------------------|
----------------------------------------------------|
----------------------------------------------------|
--7--7--7--7--7--7--7--7--9--9--9--9--9--9--9--9----|
----------------------------------------------------|
----------------------------------------------------|


----------------------------------------------------|
----------------------------------------------------|
----------------------------------------------------|
--7--7--7--7--7--7--7--7--7--7--7--7----------------|
--------------------------------------10-10-10-10---|
----------------------------------------------------|


----------------------------------------------------|
----------------------------------------------------|
----------------------------------------------------|
----------------------------------------------------|
--9--9--9--9--9--9--9--9--10-10-10-10-10-10-10-10---|
----------------------------------------------------|


----------------------------------------------------|
----------------------------------------------------|
----------------------------------------------------|
----------------------------------------------------|
--7--7--7--7--7--7--7--7--7--7--7--7--7--7--7--7----|
----------------------------------------------------|


----------------------------------------------------|
----------------------------------------------------|
----------------------------------------------------|
--7--7--7--7--7--7--7--7--9--9--9--9--9--9--9--9----|
----------------------------------------------------|
----------------------------------------------------|


----------------------------------------------------|
----------------------------------------------------|
----------------------------------------------------|
--7--7--7--7--7--7--7--7--7--7--7--7--9--9--9--9----|
----------------------------------------------------|
----------------------------------------------------|


----------------------------------------------------|
----------------------------------------------------|
--------------------------7--7--7--7--7--7--7--7----|
--10-10-10-10-10-10-10-10---------------------------|
----------------------------------------------------|
----------------------------------------------------|


----------------------------------------------------|
----------------------------------------------------|
----------------------------------------------------|
--9--9--9--9--9--9--9--9--9--9--9--9--9--9--9--9----|
----------------------------------------------------|
----------------------------------------------------|


----------------------------------------------------|
----------------------------------------------------|
----------------------------------------------------|
--7--7--7--7--7--7--7--7--9--9--9--9--9--9--9--9----|
----------------------------------------------------|
----------------------------------------------------|


----------------------------------------------------|
----------------------------------------------------|
----------------------------------------------------|
--7--7--7--7--7--7--7--7--7--7--7--7----------------|
--------------------------------------10-10-10-10---|
----------------------------------------------------|


----------------------------------------------------|
----------------------------------------------------|
----------------------------------------------------|
----------------------------------------------------|
--9--9--9--9--9--9--9--9--10-10-10-10-10-10-10-10---|
----------------------------------------------------|


----------------------------------------------------|
----------------------------------------------------|
----------------------------------------------------|
--7--7--7--7--7--7--7--7--11-11-11-11-11-11-11-11---|
----------------------------------------------------|
----------------------------------------------------|


----------------------------------------------------|
----------------------------------------------------|
----------------------------------------------------|
--9--9--9--9--9--9--9--9--7--7--7--7--7--7--7--7----|
----------------------------------------------------|
----------------------------------------------------|


----------------------------------------------------|
----------------------------------------------------|
----------------------------------------------------|
--9--9--9--9--9--9--9--9--9--9--9--9--9--9--9--9----|
----------------------------------------------------|
----------------------------------------------------|


----------------------------------------------------|
----------------------------------------------------|
----------------------------------------------------|
--7--7--7--7--7--7--7--7--6--6--6--6--6--6--6--6----|
----------------------------------------------------|
----------------------------------------------------|


----------------------------------------------------|
----------------------------------------------------|
----------------------------------------------------|
--7--7--7--7--7--7--7--7--11-11-11-11-11-11-11-11---|
----------------------------------------------------|
----------------------------------------------------|


----------------------------------------------------|
----------------------------------------------------|
----------------------------------------------------|
--9--9--9--9--9--9--9--9--7--7--7--7--7--7--7--7----|
----------------------------------------------------|
----------------------------------------------------|


----------------------------------------------------|
----------------------------------------------------|
----------------------------------------------------|
--9--9--9--9--9--9--9--9--9--9--9--9--9--9--9--9----|
----------------------------------------------------|
----------------------------------------------------|


----------------------------------------------------|
----------------------------------------------------|
----------------------------------------------------|
--7--7--7--7--7--7--7--7--6--6--6--6--6--6--6--6----|
----------------------------------------------------|
----------------------------------------------------|


----------------------------------------------------|
----------------------------------------------------|
----------------------------------------------------|
--7--7--7--7--7--7--7--7--11-11-11-11-11-11-11-11---|
----------------------------------------------------|
----------------------------------------------------|


----------------------------------------------------|
----------------------------------------------------|
----------------------------------------------------|
--9--9--9--9--9--9--9--9--7--7--7--7--7--7--7--7----|
----------------------------------------------------|
----------------------------------------------------|


----------------------------------------------------|
----------------------------------------------------|
----------------------------------------------------|
--9--9--9--9--9--9--9--9--9--9--9--9--9--9--9--9----|
----------------------------------------------------|
----------------------------------------------------|


----------------------------------------------------|
----------------------------------------------------|
----------------------------------------------------|
--7--7--7--7--7--7--7--7--6--6--6--6--6--6--6--6----|
----------------------------------------------------|
----------------------------------------------------|


----------------------------------------------------|
----------------------------------------------------|
----------------------------------------------------|
--7--7--7--7--7--7--7--7--11-11-11-11-11-11-11-11---|
----------------------------------------------------|
----------------------------------------------------|


----------------------------------------------------|
----------------------------------------------------|
----------------------------------------------------|
--9--9--9--9--9--9--9--9--7--7--7--7--7--7--7--7----|
----------------------------------------------------|
----------------------------------------------------|


----------------------------------------------------|
----------------------------------------------------|
--7--7--7--7--7--7--7--7--7--7--7--7--7--7--7--7----|
----------------------------------------------------|
----------------------------------------------------|
----------------------------------------------------|


----------------------------------------------------|
----------------------------------------------------|
--6--6--6--6--6--6--6--6--6--6--6--6--6--6--6--6----|
----------------------------------------------------|
----------------------------------------------------|
----------------------------------------------------|


----------------------------|----------------------------|
----------------------------|----------------------------|
--9--9--9--9--9--9--7--7----|--9--9--9--9--9--9--9--9----|
----------------------------|----------------------------|
--7--7--7--7--7--7--5--5----|--7--7--7--7--7--7--7--7----|
----------------------------|----------------------------|


----------------------------|----------------------------|
----------------------------|----------------------------|
--12-12-12-12-12-12-12-12---|--5--5--5--5--8--8--8--8----|
----------------------------|----------------------------|
--10-10-10-10-10-10-10-10---|--3--3--3--3--6--6--6--6----|
----------------------------|----------------------------|


----------------------------|----------------------------|
----------------------------|----------------------------|
--9--9--9--9--9--9--7--7----|--9--9--9--9--9--9--9--9----|
----------------------------|----------------------------|
--7--7--7--7--7--7--5--5----|--7--7--7--7--7--7--7--7----|
----------------------------|----------------------------|


----------------------------|----------------------------|
----------------------------|----------------------------|
--12-12-12-12-12-12-12-12---|--5--5--5--5--8--8--8--8----|
----------------------------|----------------------------|
--10-10-10-10-10-10-10-10---|--3--3--3--3--6--6--6--6----|
----------------------------|----------------------------|


----------------------------|----------------------------|
----------------------------|----------------------------|
--9--9--9--9--9--9--7--7----|--9--9--9--9--9--9--9--9----|
----------------------------|----------------------------|
--7--7--7--7--7--7--5--5----|--7--7--7--7--7--7--7--7----|
----------------------------|----------------------------|


----------------------------|----------------------------|
----------------------------|----------------------------|
--9--9--9--9--9--9--9--9----|--5--5--5--5--8--8--8--8----|
----------------------------|----------------------------|
--7--7--7--7--7--7--7--7----|--3--3--3--3--6--6--6--6----|
----------------------------|----------------------------|


----------------------------|----------------------------|
----------------------------|----------------------------|
--9--9--9--9--9--9--7--7----|--9--9--9--9--9--9--9--9----|
----------------------------|----------------------------|
--7--7--7--7--7--7--5--5----|--7--7--7--7--7--7--7--7----|
----------------------------|----------------------------|


----------------------------|----------------------------|
----------------------------|----------------------------|
--17-17-17-17-17-17-17-17---|--16-16-16-16-14-14-14-14---|
----------------------------|----------------------------|
--15-15-15-15-15-15-15-15---|--14-14-14-14-12-12-12-12---|
----------------------------|----------------------------|


----------------------------------------------------|
----------------------------------------------------|
----------------------------------------------------|
--9--9--9--9--9--9--9--9--9--9--9--9--7--7--7--7----|
----------------------------------------------------|
----------------------------------------------------|


----------------------------------------------------|
----------------------------------------------------|
----------------------------------------------------|
--9--9--9--9--9--9--9--9--9--9--9--9--9--9--9--9----|
----------------------------------------------------|
----------------------------------------------------|


----------------------------------------------------|
----------------------------------------------------|
----------------------------------------------------|
--10-10-10-10-10-10-10-10-10-10-10-10-10-10-10-10---|
----------------------------------------------------|
----------------------------------------------------|


----------------------------------------------------|
----------------------------------------------------|
----------------------------------------------------|
--10-10-10-10-10-10-10-10-10-10-10-10-10-10-10-10---|
----------------------------------------------------|
----------------------------------------------------|


----------------------------------------------------|
----------------------------------------------------|
----------------------------------------------------|
--9--9--9--9--9--9--9--9--9--9--9--9--7--7--7--7----|
----------------------------------------------------|
----------------------------------------------------|


----------------------------------------------------|
----------------------------------------------------|
----------------------------------------------------|
--9--9--9--9--9--9--9--9--9--9--9--9--9--9--9--9----|
----------------------------------------------------|
----------------------------------------------------|


----------------------------------------------------|
----------------------------------------------------|
----------------------------------------------------|
--9--9--9--9--9--9--9--9--9--9--9--9--9--9--9--9----|
----------------------------------------------------|
----------------------------------------------------|


----------------------------------------------------|
----------------------------------------------------|
----------------------------------------------------|
--10-10-10-10-10-10-10-10-10-10-10-10-10-10-10-10---|
----------------------------------------------------|
----------------------------------------------------|


----------------------------------------------------|
----------------------------------------------------|
----------------------------------------------------|
--7--7--7--7--7--7--7--7--11-11-11-11-11-11-11-11---|
----------------------------------------------------|
----------------------------------------------------|


----------------------------------------------------|
----------------------------------------------------|
----------------------------------------------------|
--9--9--9--9--9--9--9--9--7--7--7--7--7--7--7--7----|
----------------------------------------------------|
----------------------------------------------------|


----------------------------------------------------|
----------------------------------------------------|
----------------------------------------------------|
--9--9--9--9--9--9--9--9--9--9--9--9--9--9--9--9----|
----------------------------------------------------|
----------------------------------------------------|


----------------------------------------------------|
----------------------------------------------------|
----------------------------------------------------|
--7--7--7--7--7--7--7--7--6--6--6--6--6--6--6--6----|
----------------------------------------------------|
----------------------------------------------------|


----------------------------------------------------|
----------------------------------------------------|
----------------------------------------------------|
--7--7--7--7--7--7--7--7--11-11-11-11-11-11-11-11---|
----------------------------------------------------|
----------------------------------------------------|


----------------------------------------------------|
----------------------------------------------------|
----------------------------------------------------|
--9--9--9--9--9--9--9--9--7--7--7--7--7--7--7--7----|
----------------------------------------------------|
----------------------------------------------------|


----------------------------------------------------|
----------------------------------------------------|
----------------------------------------------------|
--9--9--9--9--9--9--9--9--9--9--9--9--9--9--9--9----|
----------------------------------------------------|
----------------------------------------------------|


----------------------------------------------------|
----------------------------------------------------|
----------------------------------------------------|
--7--7--7--7--7--7--7--7--6--6--6--6--6--6--6--6----|
----------------------------------------------------|
----------------------------------------------------|


----------------------------------------------------|
----------------------------------------------------|
----------------------------------------------------|
--7--7--7--7--7--7--7--7--11-11-11-11-11-11-11-11---|
----------------------------------------------------|
----------------------------------------------------|


----------------------------------------------------|
----------------------------------------------------|
----------------------------------------------------|
--9--9--9--9--9--9--9--9--7--7--7--7--7--7--7--7----|
----------------------------------------------------|
----------------------------------------------------|


----------------------------------------------------|
----------------------------------------------------|
----------------------------------------------------|
--9--9--9--9--9--9--9--9--9--9--9--9--9--9--9--9----|
----------------------------------------------------|
----------------------------------------------------|


----------------------------------------------------|
----------------------------------------------------|
----------------------------------------------------|
--7--7--7--7--7--7--7--7--6--6--6--6--6--6--6--6----|
----------------------------------------------------|
----------------------------------------------------|


----------------------------------------------------|
----------------------------------------------------|
----------------------------------------------------|
--7--7--7--7--7--7--7--7--11-11-11-11-11-11-11-11---|
----------------------------------------------------|
----------------------------------------------------|


----------------------------------------------------|
----------------------------------------------------|
----------------------------------------------------|
--9--9--9--9--9--9--9--9--7--7--7--7--7--7--7--7----|
----------------------------------------------------|
----------------------------------------------------|


----------------------------------------------------|
----------------------------------------------------|
--7--7--7--7--7--7--7--7--7--7--7--7--7--7--7--7----|
----------------------------------------------------|
----------------------------------------------------|
----------------------------------------------------|


----------------------------------------------------|
----------------------------------------------------|
--6--6--6--6--6--6--6--6--6--6--6--6--6--6--6--6----|
----------------------------------------------------|
----------------------------------------------------|
----------------------------------------------------|

        PM------------------|
----------------------------------------------------|
----------------------------------------------------|
----------------------------------------------------|
----------------------------------------------------|
--7-----------------------------7h-9h-10----6-------|
--------0-----0-----0-----0-------------------------|

        PM------------------|
----------------------------------------------------|
----------------------------------------------------|
----------------------------------------------------|
----------------------------------------------------|
--7-----------------------------7h-9h-10----6-------|
--------0-----0-----0-----0-------------------------|

        PM------------------|
----------------------------------------------------|----------------||
----------------------------------------------------|----------------||
----------------------------------------------------|----------------||
----------------------------------------------------|--7-----4--4----||
--7-----------------------------7h-9h-10----6-------|--7-----4--4----||
--------0-----0-----0-----0-------------------------|--5-----2--2----||            
Submit corrections


        Metus Odium lessons Hard to play? Try these video lessons and learn fast Metus Odium lessons
        
↑ Back to top | Tablatures and chords for acoustic guitar and electric guitar, ukulele, drums are parodies/interpretations of the original songs. You may use it for private study, scholarship, research or language learning purposes only