» » »

Every Time I Die - Romeo A Go-go Bass

Artists:  A B C D E F G H I J K L M N O P Q R S T U V W X Y Z # 

Romeo A Go-go Bass

(ver. 2) Click to play this song!
Every Time I Die
 Rating:
4/5 (4 votes)

 Romeo A Go-go lessons Tabs too difficult? Try these video lessons and learn fast
 
                #------------------------------------------------------------------------------##

                            ROMEO A GO-GO (Bassline)
                         As recorded by Every Time I Die
                         (From the 2003 Album HOT DAMN!)

Words by Keith Buckley

Music by Every Time I Die

Gtr I (D A D G) - 'w/pick'

 Intro            Verse
  Fast Hardcore Q=230
 13/8             7/8
  Gtr I
  W                E E E E E E E   E E E E E E E
|---------------||---------------|---------------|
|---------------||---------3-----|---------3-----|
|---------------||-----------4p0-|-----------4p0-|
|---------------||-7p0-7p0-------|-6p0-7p0-------|


                 9/8
  E E E E E E E   E E E E E E E Q
|---------------|-------------------|
|---------3-----|---------3---------|
|-----------4p0-|-----------4p0-4---|
|-7p0-7p0-------|-6p0-7p0-----------|


 7/8                                             9/8
  E E E E E E E   E E E E E E E   E E E E E E E   E E E E E E E Q
|---------------|---------------|---------------|-------------------|
|---------3-----|---------3-----|---------3-----|---------3---------|
|-----------4p0-|-----------4p0-|-----------4p0-|-----------4p0-4---|
|-6p0-7p0-------|-6p0-7p0-------|-7p0-7p0-------|-6p0-7p0-----------|


  7/8                           9/8
   W         W         W         H    E E E Q
||---------|---------|---------|---------------||
||---------|---------|---------|------3--------||
||---------|---------|---------|--------4p0-4--||
||---------|---------|---------|---------------||


 Pre-Verse
 4/4
  Wx4
|--------||
|--------||
|--------||
|--------||


 Verse
 7/8                                                               3/4
  E E E E E E E   E E E E E E E     E E E E E E E   E E E E E E E   H.
|---------------|---------------||----------------|---------------|--------||
|---------3-----|---------3-----||o---------3-----|---------3-----|-------o||
|-----------4p0-|-----------4p0-||o-----------4p0-|-----------4p0-|-4-----o||
|-6p0-7p0-------|-6p0-7p0-------||--6p0-7p0-------|-6p0-7p0-------|--------||


 7/8                                             9/8
  E E E E E E E   E E E E E E E   E E E E E E E   E E E E E E E E E
|---------------|---------------|---------------|--------------------|
|---------3-----|---------3-----|---------3-----|---------3----------|
|-----------4p0-|-----------4p0-|-----------4p0-|-----------4p0-4p0--|
|-7p0-7p0-------|-6p0-7p0-------|-6p0-7p0-------|-6p0-7p0------------|


                                                                  Slower Q=160
 7/8                                                             4/4
  E E E E E E E   E E E E E E E   E E E E E E E   E E E E E E E   W
|---------------|---------------|---------------|---------------|------||
|---------3-----|---------3-----|---------3-----|---------3-----|------||
|-----------4p0-|-----------4p0-|-----------4p0-|-----------4p0-|-4----||
|-7p0-7p0-------|-6p0-7p0-------|-7p0-7p0-------|-6p0-7p0-------|------||


  4/4
   Wx2
||--------||
||--------||
||--------||
||--------||


 Chorus
  E E E E E Q.     E E E E E Q.     E E E E E E E E   E E E E E Q.
|----------------|----------------|-----------------|-----------------|
|----------------|----------------|-----------------|-----------------|
|----------------|----------------|-----------------|-----------------|
|-4-3-0-3-0------|-4-3-0-3-0------|-4-3-0-3-0-3-4-3-|-4-3-0-3-0-------|


  E E E E E Q.     E E E E H      E E E E E Q.     E E E E E Q.
|----------------|--------------|----------------|-----------------|
|----------------|--------------|----------------|-----------------|
|----------------|--------------|----------------|-----------------|
|-4-3-0-3-0------|-4-3-0-3------|-4-3-0-3-0------|-4-3-0-3-0-------|


                6/4
  E E E E H      E E E E W
|--------------|--------------||
|--------------|--------------||
|--------------|--------------||
|-4-3-0-3------|-4-3-0-3-0----||


 Interlude
  E E E E W          E E E E W
|------------------|--------------||
|------------------|--------------||
|------------------|--------------||
|-4-3-0-3-0--------|-4-3-0-3-0----||


 Verse
  Faster Q=198
 4/4
  E E E E Q  E E   E E Q  E E E E   E E E E Q  E E   E E E E E E Q
|----------------|----------------|----------------|----------------|
|----------------|----------------|----------------|-3-3------------|
|----------------|----------------|----------------|-----4-4-0-0-6--|
|-4-3-0-3-0--4-3-|-0-3-0--4-3-0-3-|-4-3-0-3-0--4-3-|----------------|


  E E E E Q  E E   E E Q  E E E E   E E E E Q  E E   E E  E E E E E E
|----------------|----------------|----------------|-------------------||
|----------------|----------------|----------------|-------------------||
|----------------|----------------|----------------|-8-----------------||
|-4-3-0-3-0--4-3-|-0-3-0--4-3-0-3-|-4-3-0-3-0--4-3-|-----11---7---6----||


 Verse
  Faster Q=230
 7/8                                             9/8
  E E E E E E E   E E E E E E E   E E E E E E E   E E E E E E E Q
|---------------|---------------|---------------|-------------------|
|---------3-----|---------3-----|---------3-----|---------3---------|
|-----------4p0-|-----------4p0-|-----------4p0-|-----------4p0-4---|
|-6p0-7p0-------|-6p0-7p0-------|-7p0-7p0-------|-6p0-7p0-----------|


 7/8                                             9/8
  E E E E E E E   E E E E E E E   E E E E E E E   E E E E E E E Q
|---------------|---------------|---------------|-------------------|
|---------3-----|---------3-----|---------3-----|---------3---------|
|-----------4p0-|-----------4p0-|-----------4p0-|-----------4p0-4---|
|-6p0-7p0-------|-6p0-7p0-------|-6p0-7p0-------|-6p0-7p0-----------|


   7/8             4/4               7/8             9/8
    E E E E E E E   E E E E E E E E   E E E E E E E   E E E E E E E Q
||----------------|-----------------|---------------|-------------------||
||o---------3-----|---------3-------|---------3-----|---------3--------o||
||o-----------4p0-|-----------4p0h4-|-----------4p0-|-----------4p0-4--o||
||--7p0-7p0-------|-6p0-7p0---------|-7p0-7p0-------|-6p0-7p0-----------||


   Breakdown
    Slower Q=188
   4/4
    E S S E S S E S S E S S   E S S E S S E S S E S S  4x
||--------------------------|--------------------------||
||o-------------------------|-------------------------o||
||o-------------------------|-------------------------o||
||--4-0-0-3-0-0-0-0-0-4-0-0-|-3-0-0-0-0-0-4-0-0-3-0-0--||


   Wx2
||--------||
||--------||
||--------||
||--------||


   Breakdown
    Q  E E E E Q    E E E E Q  E E
||----------------|----------------|
||o---------------|----------------|
||o---------------|----------------|
||-----0-0-0-0----|-0-0-0-0----0-0-|


  E S S E S S E S S E S S   E S S E S S E S S Q   4x
|-------------------------|-----------------------||
|-------------------------|----------------------o||
|-------------------------|----------------------o||
|-4-0-0-3-0-0-0-0-0-4-0-0-|-3-0-0-0-0-0-4-0-0-3---||


 Verse
  Faster Q=205
 3/4
  E E E E E E     E E E E E E   E E E E E E   E E E E Q
|-------------||--------------|-------------|------------|
|-------------||o-------------|-------------|------------|
|-------------||o-------------|-------------|------------|
|-4-3-0-3-0-0-||--4-3-0-3-0-0-|-4-3-0-3-0-0-|-4-3-0-3-0--|


                                           4/4
  E E E E Q    E E E E E E   E E Q  E E     E E E E E E Q
|------------|-------------|-------------||-----------------|
|------------|-------------|------------o||-3-3-------------|
|------------|-------------|------------o||-----4-4-0-0-6---|
|-4-3-0-3-0--|-4-3-0-3-4-3-|-0-3-0--4-3--||-----------------|


 3/4
  E E E E Q    E E E E Q    E E E E E E   E E Q  E E
|------------|------------|-------------|------------|
|------------|------------|-------------|------------|
|------------|------------|-------------|------------|
|-4-3-0-3-0--|-4-3-0-3-0--|-4-3-0-3-4-3-|-0-3-0--4-3-|


  E E E E E E   E E E E E E   E E E E E E   E E E E E E
|-------------|-------------|-------------|-------------||
|-------------|-------------|-------------|-------------||
|-------------|-------------|-------------|-------------||
|-4-3-0-3-0-0-|-4-3-0-3-0-0-|-4-3-0-3-0-0-|-4-3-0-3-0-0-||


   Slower Q=150
  4/4
   Q  E E E E Q    E E E E Q  E E
||---------------|----------------||
||---------------|----------------||
||---------------|----------------||
||----0-0-0-0----|-0-0-0-0----0-0-||


   Verse
    Faster Q=230
   7/8                                             9/8
    E E E E E E E   E E E E E E E   E E E E E E E   E E E E E E E Q
||----------------|---------------|---------------|-------------------||
||o---------3-----|---------3-----|---------3-----|---------3--------o||
||o-----------4p0-|-----------4p0-|-----------4p0-|-----------4p0-4--o||
||--6p0-7p0-------|-6p0-7p0-------|-7p0-7p0-------|-6p0-7p0-----------||


   Slower Q=150
  3/4
   E E E E Q    E E E Q.
||------------|------------||
||------------|------------||
||------------|------------||
||-0-0-0-0----|-0-0-0-6----||


 Breakdown
  E E E E Q    E E E E Q    E E E E Q    E E E E Q
|------------|------------|------------|------------|
|------------|------------|------------|------------|
|------------|------------|------------|------------|
|-0-0-0-0----|-0-0-0-0----|-0-0-0-0----|-0-0-0-0----|


  E E E E Q    W
|------------:------*|
|------------:------*|
|------------:------*|
|-0-0-0-0----:------*|


Duration Legend
---------------
W - whole; H - half; Q - quarter; E - 8th; S - 16th; T - 32nd; X - 64th; a - acciaccatura
+ - note tied to previous; . - note dotted; .. - note double dotted
Uncapitalized letters represent notes that are staccato (1/2 duration)
Irregular groupings are notated above the duration line
Duration letters will always appear directly above the note/fret number it represents the
duration for.  Duration letters with no fret number below them represent rests.  Multi-
bar rests are notated in the form Wxn, where n is the number of bars to rest for.  Low
melody durations appear below the staff

Tablature Legend
----------------
 h   - hammer-on
 p   - pull-off
 b   - bend
 pb  - pre-bend
 r   - bend release (if no number after the r, then release immediately)
 /\  - slide into or out of (from/to "nowhere")
 s   - legato slide
 S   - shift slide
  - natural harmonic
[n]  - artificial harmonic
n(n) - tapped harmonic
 ~   - vibrato
 tr  - trill
 T   - tap
 TP  - trem. picking
 PM  - palm muting
\n/  - tremolo bar dip; n = amount to dip
 \n  - tremolo bar down
 n/  - tremolo bar up
/n\  - tremolo bar inverted dip
 =   - hold bend; also acts as connecting device for hammers/pulls
 <>  - volume swell (louder/softer)
 x   - on rhythm slash represents muted slash
 o   - on rhythm slash represents single note slash

Misc Legend
-----------
 |  - bar
||  - double bar
||o - repeat start
o|| - repeat end
*|  - double bar (ending)
 :  - bar (freetime)
 $  - Segno
 &  - Coda
Tempo markers -  = BPM(8/16=s8/s16), where s8 = swing 8ths, s16 = swing 16ths


***************************************************************************************
***************************************************************************************
            
Submit corrections


        Romeo A Go-go lessons Hard to play? Try these video lessons and learn fast Romeo A Go-go lessons
        
↑ Back to top | Tablatures and chords for acoustic guitar and electric guitar, ukulele, drums are parodies/interpretations of the original songs. You may use it for private study, scholarship, research or language learning purposes only