Home » E » Everything Everything »

Everything Everything - No Reptiles Bass

Artists:  A B C D E F G H I J K L M N O P Q R S T U V W X Y Z # 

No Reptiles Bass

(ver. 1) Click to play this song!
Everything Everything
[Intro] - (nothing played)


[Verse] - (nothing played)


[Pre-Chorus]

G|--------------------------------------------------|
D|--------------------------------------------------|
A|--------------------6--6--1--1--1--1--1--1--3--3--| x2
E|--1--1--1--1--1--1--------------------------------|


[Chorus]

G|-------------------------------------|-------------------------------------------------|
D|-------------------------------------|-------------------------------------------------|
A|--3--3--3--5--5--5--5--5--3--3--5--5-|-1--1--1--1--1--1--1--1--------------------------| 
E|-------------------------------------|-------------------------1--1--1--1--1--1--1--1--|

G|-------------------------------------------------|-------------------------------------------------|
D|-------------------------------------------------|-------------------------------------------------|
A|--3--3--3--3--3--3--3--3--3--3--3--3--3--3--3--3-|-1--1--1--1--1--1--1--1--5--5--5--5--5--5--5--5--| 
E|---------------------------------------------------------------------------------------------------|

G|-------------------------------------|-------------------------------------------------|
D|-------------------------------------|-------------------------------------------------|
A|--3--3--3--5--5--5--5--5--3--3--5--5-|-1--1--1--1--1--1--1--1--------------------------| 
E|-------------------------------------|-------------------------1--1--1--1--1--1--1--1--|

G|-------------------------------------------------|-------------------------------------------------|
D|-------------------------------------------------|-------------------------------------------------|
A|--3--3--3--3--3--3--3--3--3--3--3--3--3--3--3--3-|-13-13-13-13-13-13-13-13-5--5--5--5--5--5--5--5--| 
E|---------------------------------------------------------------------------------------------------|

G|-------------------------------------|-------------------------------------------------|
D|-------------------------------------|-------------------------------------------------|
A|--3--3--3--5--5--5--5--5--3--3--5--5-|-1--1--1--1--1--1--1--1--------------------------| 
E|-------------------------------------|-------------------------1--1--1--1--1--1--1--1--|

G|-------------------------------------------------|-------------------------------------------------|
D|-------------------------------------------------|-------------------------------------------------|
A|--3--3--3--3--3--3--3--3--3--3--3--3--3--3--3--3-|-1--1--1--1--1--1--1--1--5--5--5--5--5--5--5--5--| 
E|---------------------------------------------------------------------------------------------------|

G|-------------------------------------|-------------------------------------------------|
D|-------------------------------------|-------------------------------------------------|
A|--3--3--3--5--5--5--5--5--3--3--5--5-|-1--1--1--1--1--1--1--1--------------------------| 
E|-------------------------------------|-------------------------1--1--1--1--1--1--1--1--|

G|-------------------------------------------------|-------------------------------------------------|
D|-------------------------------------------------|-------------------------------------------------|
A|--3--3--3--3--3--3--3--3--3--3--3--3--3--3--3--3-|-13-13-13-13-13-13-13-13-5--5--5--5--5--5--5--5--| 
E|---------------------------------------------------------------------------------------------------|

G|-------------------------------------|-------------------------------------------------|
D|-------------------------------------|-------------------------------------------------|
A|--3--3--3--5--5--5--5--5--3--3--5--5-|-1--1--1--1--1--1--1--1--------------------------| 
E|-------------------------------------|-------------------------1--1--1--1--1--1--1--1--|

G|-------------------------------------------------|-------------------------------------------------|
D|-------------------------------------------------|-------------------------------------------------|
A|--3--3--3--3--3--3--3--3--3--3--3--3--3--3--3--3-|-1--1--1--1--1--1--1--1--5--5--5--5--5--5--5--5--| 
E|---------------------------------------------------------------------------------------------------|

G|-------------------------------------|-------------------------------------------------|
D|-------------------------------------|-------------------------------------------------|
A|--3--3--3--5--5--5--5--5--3--3--5--5-|-1--1--1--1--1--1--1--1--------------------------| 
E|-------------------------------------|-------------------------1--1--1--1--1--1--1--1--|

G|-------------------------------------------------|-------------------------------------------------|
D|-------------------------------------------------|-------------------------------------------------|
A|--3--3--3--3--3--3--3--3--3--3--3--3--3--3--3--3-|-13-13-13-13-13-13-13-13-5--5--5--5--5--5--5--5--| 
E|---------------------------------------------------------------------------------------------------|

G|-------------------------------------|-------------------------------------------------|
D|-------------------------------------|-------------------------------------------------|
A|--3--3--3--5--5--5--5--5--3--3--5--5-|-1--1--1--1--1--1--1--1--------------------------| 
E|-------------------------------------|-------------------------1--1--1--1--1--1--1--1--|

G|-------------------------------------------------|-------------------------------------------------|
D|-------------------------------------------------|-------------------------------------------------|
A|--3--3--3--3--3--3--3--3--3--3--3--3--3--3--3--3-|-1--1--1--1--1--1--1--1--5--5--5--5--5--5--5--5--| 
E|---------------------------------------------------------------------------------------------------|

G|-------------------------------------|-------------------------------------------------|
D|-------------------------------------|-------------------------------------------------|
A|--3--3--3--5--5--5--5--5--3--3--5--5-|-1--1--1--1--1--1--1--1--------------------------| 
E|-------------------------------------|-------------------------1--1--1--1--1--1--1--1--|

G|-------------------------------------------------|-------------------------------------------------|
D|-------------------------------------------------|-------------------------------------------------|
A|--3--3--3--3--3--3--3--3--3--3--3--3--3--3--3--3-|-13-13-13-13-13-13-13-13-5--5--5--5--5--5--5--5--| 
E|---------------------------------------------------------------------------------------------------|

G|-------------------------------------|-------------------------------------------------|
D|-------------------------------------|-------------------------------------------------|
A|--3--3--3--5--5--5--5--5--3--3--5--5-|-1--1--1--1--1--1--1--1--------------------------| 
E|-------------------------------------|-------------------------1--1--1--1--1--1--1--1--|

G|-------------------------------------------------|-------------------------------------------------|
D|-------------------------------------------------|-------------------------------------------------|
A|--3--3--3--3--3--3--3--3--3--3--3--3--3--3--3--3-|-1--1--1--1--1--1--1--1--5--5--5--5--5--5--5--5--| 
E|---------------------------------------------------------------------------------------------------|

G|-------------------------------------|-------------------------------------------------|
D|-------------------------------------|-------------------------------------------------|
A|--3--3--3--5--5--5--5--5--3--3--5--5-|-1--1--1--1--1--1--1--1--------------------------| 
E|-------------------------------------|-------------------------1--1--1--1--1--1--1--1--|

G|-------------------------------------------------|-------------------------------------------------|
D|-------------------------------------------------|-------------------------------------------------|
A|--3--3--3--3--3--3--3--3--3--3--3--3--3--3--3--3-|-13-13-13-13-13-13-13-13-5--5--5--5--5--5--5--5--| 
E|---------------------------------------------------------------------------------------------------|

G|-------------------------------------|-------------------------------------------------|
D|-------------------------------------|-------------------------------------------------|
A|--3--3--3--5--5--5--5--5--3--3--5--5-|-1--1--1--1--1--1--1--1--------------------------| 
E|-------------------------------------|-------------------------1--1--1--1--1--1--1--1--|

G|-------------------------------------------------|-------------------------------------------------|
D|-------------------------------------------------|-------------------------------------------------|
A|--3--3--3--3--3--3--3--3--3--3--3--3--3--3--3--3-|-1--1--1--1--1--1--1--1--5--5--5--5--5--5--5--5--| 
E|---------------------------------------------------------------------------------------------------|

G|-------------------------------------|-------------------------------------------------|
D|-------------------------------------|-------------------------------------------------|
A|--3--3--3--5--5--5--5--5--3--3--5--5-|-1--1--1--1--1--1--1--1--------------------------| 
E|-------------------------------------|-------------------------1--1--1--1--1--1--1--1--|

G|-------------------------------------------------|-------------------------------------------------|
D|-------------------------------------------------|-------------------------------------------------|
A|--3--3--3--3--3--3--3--3--3--3--3--3--3--3--3--3-|-13-13-13-13-13-13-13-13-5--5--5--5--5--5--5--5--| 
E|---------------------------------------------------------------------------------------------------|

G|-------------------------------------|-------------------------------------------------|
D|-------------------------------------|-------------------------------------------------|
A|--3--3--3--5--5--5--5--5--3--3--5--5-|-1--1--1--1--1--1--1--1--------------------------| 
E|-------------------------------------|-------------------------1--1--1--1--1--1--1--1--|

G|-------------------------------------------------|-------------------------------------------------|
D|-------------------------------------------------|-------------------------------------------------|
A|--3--3--3--3--3--3--3--3--3--3--3--3--3--3--3--3-|-1--1--1--1--1--1--1--1--5--5--5--5--5--5--5--5--| 
E|---------------------------------------------------------------------------------------------------|

G|-------------------------------------|-------------------------------------------------|
D|-------------------------------------|-------------------------------------------------|
A|--3--3--3--5--5--5--5--5--3--3--5--5-|-1--1--1--1--1--1--1--1--------------------------| 
E|-------------------------------------|-------------------------1--1--1--1--1--1--1--1--|

G|-------------------------------------------------|-------------------------------------------------|
D|-------------------------------------------------|-------------------------------------------------|
A|--3--3--3--3--3--3--3--3--3--3--3--3--3--3--3--3-|-13-13-13-13-13-13-13-13-5--5--5--5--5--5--5--5--| 
E|---------------------------------------------------------------------------------------------------|


[Outro]

G|-------------------------------------|
D|-------------------------------------|
A|--3--3--3--5--5--5--5--5--3--3--5--5-| 
E|-------------------------------------|            
Submit corrections

↑ Back to top | Tablatures and chords for acoustic guitar and electric guitar, ukulele, drums are parodies/interpretations of the original songs. You may use it for private study, scholarship, research or language learning purposes only