Home » E » Everything Everything »

Everything Everything - Lost Powers Bass

Artists:  A B C D E F G H I J K L M N O P Q R S T U V W X Y Z # 

Lost Powers Bass

(ver. 1) Click to play this song!
Everything Everything
[Intro]
0:00
REST
 
[Verse 1]
0:12
G|-----------------------------------------------------------------|
D|-----------------------------------------------------------------|
A|--4---4---4-4---4---3-------------------------------6---6---6\---|
E|----------------------2---2---4-1---1---4-2---2---4--------------|
 
0:20
G|----------------------------------------------------------------|
D|------------------------------------------------------------3---|
A|--4---4---4-4---4---3-------------------------------6---6-------|
E|----------------------2---2---4-1---1---4-2---2---4-------------|
 
0:28
G|-----------------------------------------------------------------|
D|-----------------------------------------------------------------|
A|--4---4---4-4---4---3-------------------------------6---6---6\---|
E|----------------------2---2---4-1---1---4-2---2---4--------------|
 
0:36
G|--------------------------------------------------------------------|
D|--------------------------------------------------------------------|
A|--4---4---4-4---4---3-------------------------------6---6-8/9-9/11--|
E|----------------------2---2---4-1---1---4-2---2---4-----------------|
 
0:45
G|----------------------------------------------------------------|
D|--11------11----9---9-9-----------------------------------------|
A|-------11----11---------11-12---12-9---9-7---7-7-7-6---6-6------|
E|-----------------------------------------------------------4/---|
 
0:53
G|--------------------------------------------------------------|
D|--11---11-11----9---9-9---------------------------------------|
A|-------------11---------11-12---12-9---9-7---7-7-7-6----------|
E|-----------------------------------------------------7\-2/4---|
 
[Chorus 1]
1:00
G|---------------------------------------------------------|
D|---------------------------------------------------------|
A|--4---4-4-4-4---4-4-3------------------------------------|
E|----------------------2-2-2-4-1-1-1-2/-5-5-5-4-2-2-2-4---|
 
1:09
G|---------------------------------------------------------|
D|---------------------------------------------------------|
A|--4---4-4-4-4---4-4-3------------------------------------|
E|----------------------2-2-2-4-1-1-1-2/-5-5-5-4-2-2-2-4---|
 
[Post-Chorus 1]
1:17
REST
 
[Verse 2]
1:26 (Bass enters after 4 beats of rest, ~1:28)
G|-----------------------------------------------------------------|
D|-----------------------------------------------------------------|
A|----(Rest 4 Beats)----------------------------------6---6---6\---|
E|----------------------2---2---4-1---1---4-2---2---4--------------|
 
1:34
G|-------------------------------------------------------------------|
D|-------------------------------------------------------------------|
A|--4---4---4-4---4---3-------------------------------6---6---9h11---|
E|----------------------2---2---4-1---1---4-2---2---4----------------|
 
1:42
G|-----------------------------------------------------------------|
D|--11------11----9---9-9------------------------------------------|
A|-------11----11---------11-12---12-9---9-7---7-7-7-6---6---------|
E|---------------------------------------------------------7\-4/---|
 
1:50
G|-----------------------------------------------------------------|
D|--11---11-11----9---9--------------------------------------------|
A|-------------11-------11-9h11-12---12-9---9-7---7-7-7-6----------|
E|--------------------------------------------------------7\-4/9---|
 
[Chorus 2]
1:57
G|---------------------------------------------------------|
D|---------------------------------------------------------|
A|---------------------------------------------------------|
E|--9--(Hold 4 Beats)---2-2-2-4-1-1-1-2/-5-5-5-4-2-2-2-4---|
 
2:05
G|---------------------------------------------------------|
D|---------------------------------------------------------|
A|--4---4-4-4-4---4-4-3------------------------------------|
E|----------------------2-2-2-4-1-1-1-2/-5-5-5-4-2-2-2-4---|
 
 
[Bridge 1]
2:14
G|--------------------------------------------|
D|--------------------------------------------|
A|--4-----4-6-7---7-7-------------------------|
E|------4-------------0-5---5-5-0-2---2-2-0---|
 
2:19
G|----------------------------------------------|
D|----------------------------------------------|
A|--4-----4-6-7---7-------------------------7---|
E|------4-----------0-0-5---5-5-0-2---2-2p0-----|
 
2:25
G|--------------------------------------------|
D|--------------------------------------------|
A|--4-----4-6-7---7---------------------------|
E|------4-----------0-0-5---5-5-0-2---2-2-0---|
 
2:30
G|--------------------------------------------|
D|--------------------------------------------|
A|--4-----4-6-7-------------------------------|
E|------4-------4-0-2/-5---5-5-0-2---2-2-2/---|
 
 
[Pre-Chorus 3]
2:36
G|--------------------------------------------------------------10---|
D|--------------------------11-----10----------------------13--------|
A|--4---(Hold 8 Beats)---4/-----------9---11-8---11-9---11-----------|
E|-------------------------------------------------------------------|
 
2:51
G|-------------------------------------------------|
D|--11-----10--------------------------------------|
A|------------9---11-8---9/-12-12-12-11-9-9-9-9\---|
E|-------------------------------------------------|
 
[Chorus 3]
2:59
G|---------------------------------------------------------|
D|---------------------------------------------------------|
A|--4---4-4-4-4---4-4-3------------------------------------|
E|----------------------2-2-2-4-1-1-1-2/-5-5-5-4-2-2-2-4---|
 
3:08
G|---------------------------------------------------------|
D|---------------------------------------------------------|
A|--4---4-4-4-4---4-4-3------------------------------------|
E|----------------------2-2-2-4-1-1-1-2/-5-5-5-4-2-2-2-4---|
 
3:16
G|---------------------------------------------------------|
D|---------------------------------------------------------|
A|--4---4-4-4-4---4-4-3------------------------------------|
E|----------------------2-2-2-4-1-1-1-2/-5-5-5-4-2-2-2-4---|
 
3:25
G|---------------------------------------------------------|
D|---------------------------------------------------------|
A|--4---4-4-4-4---4-4-3------------------------------------|
E|----------------------2-2-2-4-1-1-1-2/-5-5-5-4-2-2-2-4---|
 
3:33
G|--------------------------------------|
D|--------------------------------------|
A|--------------------------------------|
E|--2-2-2-4-1-1-1-2/-5-5-5-4-2-2-2-2\---|
            
Submit corrections

↑ Back to top | Tablatures and chords for acoustic guitar and electric guitar, ukulele, drums are parodies/interpretations of the original songs. You may use it for private study, scholarship, research or language learning purposes only