» » »

Everything Everything - Final Form Tabs

Artists:  A B C D E F G H I J K L M N O P Q R S T U V W X Y Z # 

Final Form Tabs

(ver. 1) Click to play this song!
Everything Everything
 Rating:
1.9/5 (30 votes)

 Final Form lessons Tabs too difficult? Try these video lessons and learn fast
 
                bend the 7 off the side of the fret board so that it sounds like a 9. takes a while to get this right.
intro/verse riff
--0---7b9-0-----7b9-0-----0---7b9-0----7b9-0-----7--
--10--10--10----10--10----10--10--10---10--10---10--
--9---9---9-----9---9-----9---9---9----9---9-----9--
----------------------------------------------------
----------------------------------------------------
----------------------------------------------------


Palm muted verse
----------------------------------------------------------------------
----------------------------------------------------------------------
----------------------------------------------------------------------
--333333333333333333333333--77777777-/-4444444444444444444--99999999--
----------------------------------------------------------------------
----------------------------------------------------------------------

palm muted bridge
-----------------------------------------------------
-----------------------------------------------------
-----------------------------------------------------
----------------------------------------------------- "first body, last body"
--10(x16)--9(x16)-------------------10(x16)--9(x16)--
-------------------10(x16)--9(x16)-------------------

chorus - listen for breaks in playing 
----------------------------------
----------------------------------
----------------------------------
----------------------------------
----------7(x16)---10(x6)---------
--8(x16)------------------10(x6)--


interlude
------------------5~--------------------------------------------------
------7~---9---------------------7----------------------7p5------9----
--5~---------6-7---------------6----6--7~-------------6-----7p6----6--
-------------------------7--6----4---------------7--6---4--------6----
--3~--5~-------------------------------5~-----------------------------
-----------4---7---------5-----4----4------------5----4---------------            
Submit corrections


        Final Form lessons Hard to play? Try these video lessons and learn fast Final Form lessons
        
↑ Back to top | Tablatures and chords for acoustic guitar and electric guitar, ukulele, drums are parodies/interpretations of the original songs. You may use it for private study, scholarship, research or language learning purposes only