» » »

Everything Everything - Brainchild Tabs

Artists:  A B C D E F G H I J K L M N O P Q R S T U V W X Y Z # 

Brainchild Tabs

(ver. 1) Click to play this song!
Everything Everything
 Rating:
4.1/5 (22 votes)

 Brainchild  lessons Tabs too difficult? Try these video lessons and learn fast
 
                intro
-------------------------------------------------------------------------------|
------------------------------------------11-------11-------11-------11--------|
--10---10---10---10---10---10---10---10-------10-------10-------10-------10----|
----11---11---11---11---11---11---11---11---11--11---11--11---11--11---11--11--|
-------------------------------------------------------------------------------|
-------------------------------------------------------------------------------|


verse - palm muted
-------------------------------|-------------------------------|
-------------------------------|------12-----------------------|
--8---11-9-8-----8-11-6--6--6--|--8------9-8-----8-11-6--6--6--|
-------------9---9-11-8--8--8--|-------------9---9-11-8--8--8--|
-------------------------------|-------------------------------|
-------------------------------|-------------------------------|

---------------|----------------|
---------------|----------------|
--8-------6----|--8-------6--6--| alternate these until the next part
------9---8----|------9---8--8--|
---------------|----------------|
---------------|----------------|

"a good thing.."
--------------------------------------|--------------------------------------|
--------------------------------------|-------12-12-----12-------------------|
--8---11-9-11-9-11----11-8--x-6--x-6--|--8--9-------9-8------11-8--x-6--x-6--|
---------------------9---9--x-8--x-8--|---------------------9---9--x-8--x-8--|
--------------------------------------|--------------------------------------|
--------------------------------------|--------------------------------------|


chorus - guitar 1
------------------------------------------------------------------------------------------------------------|
---------------------------------------------7-9-10-9-7---7-9-7-------------------7-9-10-9-7---7-9-7---11~--|
--11p8----------8b9-9r8p6p4-----11p8--------------------9-------9--8b9-9r8p6p4---------------9-------9-10~--|
------9-----------------------------9-----------------------------------------------------------------------|
--------9-6------------------6-------9-6-----------------------------------------6--------------------------|
------------------------------------------------------------------------------------------------------------|

chorus - guitar 2
--14-16-------14-16-------14-16--16-17--------------|--14-16------14-16------------------|------------------|
--16-17-17----16-17-17----16-17--17-19--------------|--16-17-17---16-17-17---------------|------------------|
--------18----------18------------------------------|--------18---------18---------------|--10---(8 times)--|
----------------------------------------twice, then-|----------------------- twice, then-|----11-(       )--|
----------------------------------------------------|------------------------------------|------------------|
----------------------------------------------------|------------------------------------|------------------|
            
Submit corrections


        Brainchild  lessons Hard to play? Try these video lessons and learn fast Brainchild  lessons
        
↑ Back to top | Tablatures and chords for acoustic guitar and electric guitar, ukulele, drums are parodies/interpretations of the original songs. You may use it for private study, scholarship, research or language learning purposes only