Home » E » Everything Everything »

Everything Everything - A Fever Dream Tabs

Artists:  A B C D E F G H I J K L M N O P Q R S T U V W X Y Z # 

A Fever Dream Tabs

(ver. 1) Click to play this song!
Everything Everything
 Rating:
4.3/5 (19 votes)
                Intro]  
(0:18)
e|---------------------------------------------------------------------------|
B|----------------------6-4-4--6-4-4-----------------------------------------|
G|--------5-6-6--5-6-6-------------------------------------------------------| (x10)
D|---------------------------------------------------------------------------|
A|---------------------------------------------------------------------------|
E|---------------------------------------------------------------------------|
 
[Rest of Song] 
(1:22)
e|---------------------------------------------------------------------------|
B|-------------------------9-------------------------------------------------|
G|------------10-10-10-10-----6-6-6-/-10-------------------------------------| (Til end)
D|----------------------------------------8-8--------------------------------|
A|---------------------------------------------------------------------------|
E|---------------------------------------------------------------------------|            
Submit corrections

↑ Back to top | Tablatures and chords for acoustic guitar and electric guitar, ukulele, drums are parodies/interpretations of the original songs. You may use it for private study, scholarship, research or language learning purposes only